Oops, an error
Loading. Please wait.

Just Give Me A Reason Tab

version 2
version 2

Intro

Whole song

Interactive

by P!nk
110,963 views 171 this week
no commentswrite comment
1 2 3 4 5
excellent!
x 11
add to favorites
launch autoscroll
font size
0
reset
how to read this tab
guitar tuner
Tab Pro tools
  • play this tab
  • loop segment
  • change instrument
  • show fretboard
  • metronome
×
Best way to learn
"Just Give Me A Reason"
Autoscroll
slow
fast
+/-
esc
set tempo
stop
Contributor
Difficulty
intermediate
Hi im Christian from "Christians How To Plays"

These Chords/Tabs are 100% correct. 

To look how i play the strumming parts please visit my video lesson of the Song: 

http://www.youtube.com/watch?v=uNLTR3d_r6w

Please Comment, Like and share my Videos.

Now, have fun with the Song: 


P!nk feat. Nate Ruess - Just Give Me A Reason

D/F#: 200233
Dsus: 000233

Intro: Em, A, D, G, C, G, D

Chords Intro 

E||-------|--0--3--2-----5--2-----3--|-----0--3-----|
B||-------|--0--------2-----3-----0--|--3--1--0--3--|
G||-------|--0--------2-----2--2--0--|-----0--0--2--|
D||-------|--2--------2-----0-----0--|-----2--0--0--|
A||-------|--2--------0-----------2--|-----3--2-----|
E||-------|--0--------------------3--|--------3-----|

Single Note Intro Melody

--3--3--3--2--0--5--2-----|--3--------------||
-----------------------3--|-----0--1--0-----||
--------------------------|--------------2--||
--------------------------|-----------------||
--------------------------|-----------------||
--------------------------|-----------------||

Piano Interlude 

E||---------------|-----||
B||--0--3--0------|-----||
G||----------2-0--|-----||
D||---------------|-----||
A||---------------|-----||
E||---------------|-----||


Verse:

2xG              
Right from the start
           1xC                  1xEm
You were a thief you stole my heart
    2xC                 1xG  Piano Interlude
And I your willing victim
G                                  C                     Em                    
I let you see the parts of me that weren't all that pretty
         C                      G 
And with every touch you fixed them
    Em                  A         D    G  D/F#
Now you've been talking in your sleep  oh oh
Em               A      D   G  D/F#
Things you never say to me  oh oh 
Em                  A    D
Tell me that you've had enough
G      C     G   Dsus D
Of our love, our love


Chorus

2xG                            2xD/F#
Just give me a reason just a little bit's enough
       2xEm                            1xBm
Just a second we're not broken just bent
           1xD
And we can learn to love again
2xG                            2xD/F#                        2xEm
It's in the stars, It's been written in the scars on our hearts
                      1xBm
We're not broken just bent
           1xD              1xG
And we can learn to love again
comments
print report bad tab
I want to post or [tab]
guest
You may want to rate the tab now too:
select rating
Please do not post tabs as comments. Select "correction" instead!