Oops, an error
Loading. Please wait.

Just Give Me A Reason Tab

version 5
version 5

Intro

Whole song

Interactive

by P!nk
8,658 views 6 this week
no commentswrite comment
1 2 3 4 5
accurate
x 9
add to favorites
launch autoscroll
font size
0
reset
how to read this tab
guitar tuner
Tab Pro tools
  • play this tab
  • loop segment
  • change instrument
  • show fretboard
  • metronome
×
Best way to learn
"Just Give Me A Reason"
Autoscroll
slow
fast
+/-
esc
set tempo
stop
Contributor
Difficulty
novice
------------------------------------------------------------------------------
Just give me a reason tab - Pink
------------------------------------------------------------------------------

Tuning:Standard

Intro
e|------------------5--------------------------------------------------------|
B|-8--8--8--7--5---------7------8--------------------------------------------|
G|---------------------------------7--5--------4----------------4--7--4------|
D|------------------------------------------------------7---------------7-5--|
A|---------------------------------------------------------------------------|
E|---------------------------------------------------------------------------|

Verse x2
e|---------------------------------------------------------------------------|
B|----------------------------------------------5-----5----------------------|
G|-4--4-4-4---------4-5----5--5--5--5--------------------7-------4--4--------|
D|-------------5--7--------------------5-----5----------------5--------------|
A|---------------------------------------------------------------------------|
E|---------------------------------------------------------------------------|

Pre-chorus                          x3
e|------------------5----------------||--------------------------|
B|-8--8--8--7--5---------7------8----||--------------------------|
G|---------------------------------7-||-5--------4---------------|
D|-----------------------------------||-------------------7------|
A|-----------------------------------||--------------------------|
E|-----------------------------------||--------------------------|

Chorus x2
e|--7--7--------------7--7--5--5-------------5--5---------------------------|
B|--------8--8--------------------7--7-------------8--8--8--8--8--7--5--7---|
G|--------------7--7--------------------5-----------------------------------|
D|--------------------------------------------------------------------------|
A|--------------------------------------------------------------------------|
E|--------------------------------------------------------------------------|

e|----------8---7-5---7--|
B|------------------8----|
G|-7--7--7---------------|
D|-----------------------|
A|-----------------------|
E|-----------------------|
comments
print report bad tab
I want to post or [tab]
guest
You may want to rate the tab now too:
select rating
Please do not post tabs as comments. Select "correction" instead!