Oops, an error
Loading. Please wait.

Perfect bass

by P!nk
79 views 3 this week
no commentswrite comment
1 2 3 4 5
2 more votes to show rating
add to favorites
×
Save as Personal and add changes to this tab that will be seen only by you. Learn more ›
×
You can save this tab as Personal to edit and correct it or add notes. All changes will be seen only by you. Learn more »
launch autoscroll
font size
0
reset
guitar tuner
edit
Autoscroll
slow
fast
+/-
esc
set tempo
stop
Author
Difficulty
About this tab version
I figured this out from listening to the original song on youtube, i also did some reasearch and couldnt find this version anywhere so i decided to submit this with some variations. Was this info helpful? Yes No
[Intro] x2
same thing as the verse however just played more softly and slower, just hold the notes 
instead if playing
them 4 times.

[Verse] x2
G - D - E - C
G|-------------------------------------------------------------------------------------|
D|-------------------------------------------------------------------------------------|
A|------------5-5-5-5----7-7-7-7-------------------------------------------------------|
E|---3-3-3-3-----------------------8-8-8-8---------------------------------------------|

[Chorus] x2
G - D - E - C - This is the full song bassically however i like to add more in the chorus so this
is what i usually play.
G|-------------------------------------------------------------------------------------|
D|-------------------------------------------------------------------------------------|
A|------------5-5-5-6-7-7-7-7----------------------------------------------------------|
E|---3-3-3-3--------------------8-8-8-7-5----------------------------------------------|

[Verse] x4
G - D - E - C
G|-------------------------------------------------------------------------------------|
D|-------------------------------------------------------------------------------------|
A|------------5-5-5-5----7-7-7-7-------------------------------------------------------|
E|---3-3-3-3-----------------------8-8-8-8---------------------------------------------|

[Chorus] x2
G - D - E - C
G|-------------------------------------------------------------------------------------|
D|-------------------------------------------------------------------------------------|
A|------------5-5-5-6-7-7-7-7----------------------------------------------------------|
E|---3-3-3-3--------------------8-8-8-7-5----------------------------------------------|

[Bridge] x2
listen for timing.
https://www.youtube.com/watch?v=K3GkSo3ujSY&list=LLJzXrniFJvxsh4C4WZzKqgw&index=68

G|----------------------------------------------------------------------------------|
D|----------------------------------------------------------------------------------|
A|-----------5--5--7--7-------------------------------------------------------------|
E|----3--3----------------8--8-8----------------------------------------------------|

[Outro]
(chorus)

[Verse Variation]
(There are many but i liked this one)
G|---------------------------------------------------------------------------------|
D|-----------------------2-2-2-2---------------------------------------------------|
A|------------5-5-5-5--------------3-3-3-3-----------------------------------------|
E|---3-3-3-3-----------------------------------------------------------------------|
Suggest correction
Creating personal tab
Creating personal tab
You can edit any tab online and save it as your Personal.

You can edit, replace or remove any tab part or add personal notes – all changes will be seen only by you.

Personal tabs can be accessed anytime from any device, even offline.
Learn more »
Give kudos to tab author, rate the tab!
1 2 3 4 5
comments
print report bad tab
guest
You may want to rate the tab now too:
select rating
Wanna post a correction for this tab? Suggest correction