Oops, an error
Loading. Please wait.

Perfect Tab

version 1
version 1

Whole song

Video

by P!nk
8,973 views 9 this week
no commentswrite comment
1 2 3 4 5
please rate
add to favorites
launch autoscroll
font size
0
reset
how to read this tab
guitar tuner
Tab Pro tools
  • play this tab
  • loop segment
  • change instrument
  • show fretboard
  • metronome
×
Best way to learn
"Perfect"
Autoscroll
slow
fast
+/-
esc
set tempo
stop
Contributor
Pink - Perfect (as performed by Boyce Avenue)

Arranged by: Alejandro Manzano of Boyce Avenue
Tabbed by: Tyler Sherrod

Video of Boyce Avenue performing it:
http://www.youtube.com/watch?v=eX7nMCRSqJU

Tuning - C# G# C# G# C# F

<> = harmonics

Intro: (play w/ fingers)
---------------------------------------5-------------|
--5------------0-----0-----2-----------------0-------|
--------4----------2-------------4---------0---------|  repeat 2 times
------0----------0-------------0---------0-----------|
----0----------0-------------0---------7-------------|
--0------------------------0-------------------------|

(play w/ pick for rest of song)
Verse 1:
--------------------------------------------------5-------------
--5---------------0---------------2-----------------------------
----4-------4-------2-------2-------4-------4-------0-------0---
------0---0---0-------0---0---0-------0---0---0-------0---0---0-
--------0---------------0---------------0---------------0-------
----------------------------------------------------------------

--------------------------------------------------5--|
--5---------------0---------------2------------------|
----4-------4-------2-------2-------4-------4--------|
------0---0---0-------0---0---0-------0---0---0------|
--------0---------------0---------------0------------|
-----------------------------------------------------|


Chorus:
--------------------5-----------------------5----<12>--|
--5-----0-----2-----5-----5-----0-----2-----5----<12>--|
--4-----2-----4-----x-----4-----2-----4-----x----<12>--|
--0-----0-----0-----0-----0-----0-----0-----0----<12>--|
--0-----0-----0-----0-----0-----0-----0-----0----<12>--|
--0-----0-----0-----0-----0-----0-----0-----0----<12>--|

Verse 2:
--------------------------------------------------5-------------
--5---------------0---------------2-----------------------------
----4-------4-------2-------2-------4-------4-------0-------0---
------0---0---0-------0---0---0-------0---0---0-------0---0---0-
--------0---------------0---------------0---------------0-------
----------------------------------------------------------------

--------------------------------------------------5--------------|
--5---------------0---------------2------------------------------|
----4-------4-------2-------2-------4-------4-------0-------0----|
------0---0---0-------0---0---0-------0---0---0-------0---0---0--|
--------0---------------0---------------0---------------0--------|
-----------------------------------------------------------------|

Pre-chorus:
--------------------------------------------------5-------5-----
--5-------5-------0-------0-------2-------2---------------------
----4-------4-------2-------2-------4-------4-------0-------0---
----------------------------------------------------------------
------0-------0-------0-------0-------0-------0-------0-------0-
----------------------------------------------------------------

--------------------------------------------------5--|
--5-------5-------0-------0-------2-------2----------|
----4-------4-------2-------2-------4-------4--------|
-----------------------------------------------------|
------0-------0-------0-------0-------0-------0------|
-----------------------------------------------------|

Chorus:
--------------------5-----------------------5--|
--5-----0-----2-----5-----5-----0-----2-----5--|
--4-----2-----4-----x-----4-----2-----4-----x--|
--0-----0-----0-----0-----0-----0-----0-----0--|
--0-----0-----0-----0-----0-----0-----0-----0--|
--0-----0-----0-----0-----0-----0-----0-----0--|

Bridge:
-------2---------5---------2--|
--2----0----5----5----2----0--|
--4----2----4----x----4----2--| repeat 2 times
--0----0----0----0----0----0--|
--0----0----0----0----0----0--|
--0----0----0----0----0----0--|

(continued bridge)
-----------------5--|
--5----0----2----5--|
--4----2----4----x--|  repeat 3 times
--0----0----0----0--|
--0----0----0----0--|
--0----0----0----0--|

Chorus:
--0-----------------5-----------------------5----<12>--|
--0-----0-----2-----5-----5-----0-----2-----5----<12>--|
--0-----2-----4-----x-----4-----2-----4-----x----<12>--|
--0-----0-----0-----0-----0-----0-----0-----0----<12>--|
--0-----0-----0-----0-----0-----0-----0-----0----<12>--|
--0-----0-----0-----0-----0-----0-----0-----0----<12>--|
comments
We did not receive enough feedback on this tab! Please rate:
print report bad tab
1 2 3 4 5
I want to post or [tab]
guest
You may want to rate the tab now too:
select rating
Please do not post tabs as comments. Select "correction" instead!