Oops, an error
Loading. Please wait.

Please Don't Leave Me Bass Tab

version 1
version 1

Whole song

Interactive

by P!nk
16,319 views 9 this week
5 commentsread comments
1 2 3 4 5
excellent!
x 6
add to favorites
launch autoscroll
font size
0
reset
guitar tuner
Tab Pro tools
  • play this tab
  • loop segment
  • change instrument
  • show fretboard
  • metronome
Autoscroll
slow
fast
+/-
esc
set tempo
stop
Contributor
PINK.   Please Don't Leave me.  Ver 2, Complete Song.

Lead / Rhythmn follow the chords as below but with Capo on 1st Fret so bass notes 
follow C#, G# etc.  (although I have left the chords written in as naturals, if 
you see what I mean...!)

I'm not quite sure how the slides in the bridge should be tabbed but have had a go.

andy@baldw1n.plus.com

INTRO:

Da da da da, da da da da
(drums start!)
Da da da  da da


G:----------------|----------------|----------------|----------------|
D:----------------|----------------|----------------|----------------|
A:----------------|----------------|----------------|----------------|
E:----------------|----------------|----------------|----------------|

                                                    Da da da da da
1ST VERSE:

  C                              G
G:----------------|----------------|------------------|------------------|
D:----------------|----------------|------------------|------------------|
A:----------------|----------------|-11--11-11--11-11-|--11-11-11-11--11-|
E:--9--9-9--9-9---|---9-9-9-9--9---|------------------|------------------|

 I don't know if I can yell any louder
                                  How many times have I kicked you outta here?

   Am
G:----------------|---------------|----------------|---------------------|
D:---8--8-8--8-8--|--8-8-8-8--8---|---8--8-8--8-8--|--8----8-------------|
A:----------------|---------------|----------------|-------------9-8-9-8-|
E:----------------|---------------|----------------|---------------------|

                 Or said something insulting?         Da da da da-da

  C                              G
G:----------------|---------------|------------------|-------------------|
D:----------------|---------------|------------------|-------------------|
A:----------------|---------------|-11--11-11--11-11-|--11-11-11-11--11--|
E:--9--9-9--9-9---|--9-9-9-9--9---|------------------|-------------------|

I can be so mean when I wanna be,    I am capable of really anything


    Am
G:---------------|---------------|----------------|----------------------|
D:--8--8-8--8-8--|--8-8-8-8--8---|---8--8-8--8-8--|--8-8-8-8-------------|
A:---------------|---------------|----------------|----------------------|
E:---------------|---------------|----------------|----------------------|

                 I can cut you into pieces

    F                             G
G:---------------|---------------|----------------|----------------------|
D:---------------|---------------|----------------|----------------------|
A:--9------------|--9---9--9-----|--11------------|----------------------|
E:---------------|---------------|----------------|----------------------|

   And my heart is                Broken               Da da da-da da

CHORUS

G:----------------|--------------|----------------|------------------------|
D:----------------|--------------|----------------|------------------------|
A:--4--4-4--4-4---|--------------|----------------|------------9-8-9-8-----|
E:----------------|--4--4-4--4-4-|--6--6-6--6-6---|--6----6----------------|

   Please          don't          leave me


G:----------------|-------------------|----------------|--------------------|
D:----------------|-------------------|----------------|--------------------|
A:----------------|-/11--11-11--11-11-|----------------|------------9-8-9-8-|
E:--9--9-9--9-9---|-------------------|--6--6-6--6-6---|--6----6------------|

   Please          don't               leave me

G:--------------|--------------------|----------------|--------------------|
D:--------------|--------------------|--8--8-8--8-8---|--------------------|
A:--------------|--11--11-11--11-11--|----------------|--9--9-9--9-9-------|
E:--9--9-9--9-9-|--------------------|----------------|--------------------|

I always say how I don't need you,   But it's always gonna come right back to this


G:----------------|------------------|-------------------|----------------|
D:--8--8-8--8-8---|-10--10-10--10-10-|--11--11-11--11-11-|-11-------------|
A:----------------|------------------|-------------------|----------------|
E:----------------|------------------|-------------------|----------------|
    Please          don't          leave me

2ND VERSE

G:----------------|----------------|------------------|------------------|
D:----------------|----------------|------------------|------------------|
A:----------------|----------------|-11--11-11--11-11-|--11-11-11-11--11-|
E:--9--9-9--9-9---|---9-9-9-9--9---|------------------|------------------|

 How did I become so obnoxious?
                                  What is it with you that makes me act like this?
   Am
G:----------------|---------------|----------------|---------------------|
D:---8--8-8--8-8--|--8-8-8-8--8---|---8--8-8--8-8--|--8----8-------------|
A:----------------|---------------|----------------|-------------9-8-9-8-|
E:----------------|---------------|----------------|---------------------|

                   I've never been this nasty

  C                              G
G:----------------|---------------|------------------|-------------------|
D:----------------|---------------|------------------|-------------------|
A:----------------|---------------|-11--11-11--11-11-|--11-11-11-11--11--|
E:--9--9-9--9-9---|--9-9-9-9--9---|------------------|-------------------|

Can't you tell that this is all just a contest?
                                 The one that wins will be the one that hits the hardest

    Am
G:---------------|---------------|----------------|----------------------|
D:--8--8-8--8-8--|--8-8-8-8--8---|---8--8-8--8-8--|--8-8-8-8--8----------|
A:---------------|---------------|----------------|----------------------|
E:---------------|---------------|----------------|----------------------|

                 But baby I don't mean it

    F                             G
G:---------------|---------------|----------------|----------------------|
D:---------------|---------------|----------------|----------------------|
A:--9------------|--9---9--9-----|--11------------|----------------------|
E:---------------|---------------|----------------|----------------------|

   I mean it         I promise                     Da da da-da da

   CHORUS

G:----------------|-------------------|----------------|--------------------|
D:----------------|-------------------|----------------|--------------------|
A:----------------|-/11--11-11--11-11-|----------------|------------9-8-9-8-|
E:--9--9-9--9-9---|-------------------|--6--6-6--6-6---|--6----6------------|

   Please          don't          leave me


G:----------------|-------------------|----------------|--------------------|
D:----------------|-------------------|----------------|--------------------|
A:----------------|-/11--11-11--11-11-|----------------|------------9-8-9-8-|
E:--9--9-9--9-9---|-------------------|--6--6-6--6-6---|--6----6------------|

   Please          don't               leave me

G:--------------|--------------------|--------------|--------------------|
D:--------------|--------------------|--8-8-8-8--8--|--------------------|
A:--------------|--11--11-11--11-11--|--------------|--9-9-9-9--9--------|
E:--9--9-9--9-9-|--------------------|--------------|--------------------|

I always say how I don't need you,   But it's always gonna come right back to this


G:----------------|------------------|-------------------|----------------|
D:--8--8-8--8-8---|-10--10-10--10-10-|--11--11-11--11-11-|-11-------------|
A:----------------|------------------|-------------------|----------------|
E:----------------|------------------|-------------------|----------------|
    Please          don't             leave me

BRIDGE

G:----------------|----------------|----------------|----------------|
D:----------------|----------------|----------------|----------------|
A:----------------|----------------|----------------|--4--4-4--4-4---|
E:--4--4-4--4-4---|-4--4-/13----\6-|---6--6-6--6-6--|----------------|

    I forgot to say out loud       How beautiful you really are to me


G:----------------|----------------|----------------|----------------|
D:----------------|----------------|----------------|----------------|
A:----------------|----------------|----------------|--4--4-4--4-4---|
E:--4--4-4--4-4---|-4--4-/13----\6-|---6--6-6--6-6--|----------------|

     I can't be without            You're my perfect little punching bag


G:----------------|----------------|----------------|------------------|
D:----------------|----------------|----------------|------------------|
A:--9--9-9--9-9---|--9-9-9-9---9---|----------------|-/11-11-11-11--11-|
E:----------------|----------------|--4--4-4--4-4---|------------------|

And I need you                     I'm sorry


(Quiet bit)

C                  G
G:----------------|----------------|----------------|----------------|
D:----------------|----------------|----------------|----------------|
A:----------------|-11-------------|----------------|----------------|
E:-9--------------|----------------|----------------|----------------|

  Da da da da,    da da da da                        Da da da da-da da

  C                 G                Am
G:----------------|----------------|----------------|----------------|
D:----------------|----------------|-8--------------|----------------|
A:----------------|-11-------------|----------------|--------9-8-9-8-|
E:-9--------------|----------------|----------------|----------------|
   Please,           please         don't leave me

CHORUS x2 :

  C                G                   Am
G:----------------|-------------------|----------------|--------------------|
D:----------------|-------------------|----------------|--------------------|
A:----------------|-/11--11-11--11-11-|----------------|------------9-8-9-8-|
E:--9--9-9--9-9---|-------------------|--6--6-6--6-6---|--6----6------------|

   Please          don't          leave me

C                G                   Am
G:----------------|-------------------|----------------|--------------------|
D:----------------|-------------------|----------------|--------------------|
A:----------------|-/11--11-11--11-11-|----------------|------------9-8-9-8-|
E:--9--9-9--9-9---|-------------------|--6--6-6--6-6---|--6----6------------|

   Please          don't               leave me


C                G                   Am              F
G:--------------|--------------------|--------------|--------------------|
D:--------------|--------------------|--8-8-8-8--8--|--------------------|
A:--------------|--11--11-11--11-11--|--------------|--9-9-9-9--9--------|
E:--9--9-9--9-9-|--------------------|--------------|--------------------|

I always say how I don't need you,   But it's always gonna come right back to this


  C                G                   Am
G:----------------|-------------------|----------------|--------------------|
D:----------------|-------------------|----------------|--------------------|
A:----------------|-/11--11-11--11-11-|----------------|------------9-8-9-8-|
E:--9--9-9--9-9---|-------------------|--6--6-6--6-6---|--6----6------------|

   Please          don't          leave me

C                G                   Am
G:----------------|-------------------|----------------|--------------------|
D:----------------|-------------------|----------------|--------------------|
A:----------------|-/11--11-11--11-11-|----------------|------------9-8-9-8-|
E:--9--9-9--9-9---|-------------------|--6--6-6--6-6---|--6----6------------|

   Please          don't               leave me


C                G                   Am              F
G:--------------|--------------------|--------------|--------------------|
D:--------------|--------------------|--8-8-8-8--8--|--------------------|
A:--------------|--11--11-11--11-11--|--------------|--9-9-9-9--9--------|
E:--9--9-9--9-9-|--------------------|--------------|--------------------|

I always say how I don't need you, But it's always gonna come right back to this

C                G                   Am
G:----------------|------------------|-------------------|----------------|
D:--8--8-8--8-8---|-10--10-10--10-10-|--11--11-11--11-11-|-11-------------|
A:----------------|------------------|-------------------|----------------|
E:----------------|------------------|-------------------|----------------|
    Please          don't             leave me

 (Quietly)
C                G                   Am
G:----------------|----------------|----------------|----------------|
D:--8~------------|--10~-----------|-11~------------|----------------|
A:----------------|----------------|----------------|----------------|
E:----------------|----------------|----------------|----------------|

    Please,          please,    don't leave me
comments
print report bad tab
5 comments total. Showing first comments.
0 reply
BreAkdOwn396 wrote on December 16 2009, 11:39 pm

damn good,

0 reply
Devindude123123 wrote on June 15 2011, 11:52 pm

change the 9's to 4's on the A string and ull be able to slide to the 11's alot easier, other than that really good, thanks for the help :P

0 reply
SignalFire42 wrote on March 16 2013, 01:41 pm

Hey this is awesome :) just a few notes are an octave off, from what I can hear i.e. there's one or two places where 8 on the D string should be 1 on the A string instead. But you're spot on with notes and timing so can't complain, awesome job

I want to post or [tab]
guest
You may want to rate the tab now too:
select rating
Please do not post tabs as comments. Select "correction" instead!