Oops, an error
Loading. Please wait.

Please Dont Leave Me tab

version 1
version 1

Whole song

by P!nk
89,104 views 48 this week
3 commentsread comments
1 2 3 4 5
x 7
add to favorites
×
Save as Personal and add changes to this tab that will be seen only by you. Learn more ›
×
You can save this tab as Personal to edit and correct it or add notes. All changes will be seen only by you. Learn more »
launch autoscroll
font size
0
reset
how to read this tab
guitar tuner
edit
Autoscroll
slow
fast
+/-
esc
set tempo
stop
Author
Play it with the song! I think this tab sounds good. But really, play it WITH the 
you understand how to play it.:]


INTRO:
 Da da da da, da da da da
E|------------------------------|
B|------------------------------|
G|-6-------------------6--------| x2
D|-6-------------------6--------|
A|-4-----------9-8-9-8-4--------|
E|------------------------------|

VERS:
I don't know if I can yell any louder......
E|------------------------------------------------------------|
B|------------------------------------------------------------|
G|-6-------------------------3-- -------------------------6---|
D|-6------------6------------3----------------------------6---|
A|-4------------6------------1--------------------9-8-9-8-4---|
E|--------------4---------------------------------------------|


I can be so mean when I wanna be...            But my heart is....

E|---------------------------------------------------------------|
B|---------------------------------------------------------------|
G|-6-------------------------3-----------------------------------|
D|-6------------6------------3-----------------4--------6--------|
A|-4------------6------------1-----------------4--------6--------|
E|--------------4------------------------------2--------4--------|

CHORUS:
Please don't leave me
E|------------------------------------------------------------|
B|------------------------------------------------------------|
G|-6-------------------------3-- -------------------------6---| x2
D|-6------------6------------3----------------------------6---|
A|-4------------6------------1--------------------9-8-9-8-4---|
E|--------------4---------------------------------------------|

But it's always gonna come right back to this..
E|-----------------------------------------------|
B|-----------------------------------------------|
G|-6-------------------------3-- ----------------|
D|-6------------6------------3-----------4-------|
A|-4------------6------------1-----------4-------|
E|--------------4------------------------2-------|

Please, don't leave me
E|-------------------------------------------------------------|
B|-------------------------------------------------------------|
G|-6-------------------------3-- -------------------------6----|
D|-6------------6------------3----------------------------6----|
A|-4------------6------------1--------------------9-8-9-8-4----|
E|--------------4----------------------------------------------|

VERS:
How did I become so obnoxious?
E|------------------------------------------------------------|
B|------------------------------------------------------------|
G|-6-------------------------3-- -------------------------6---|
D|-6------------6------------3----------------------------6---|
A|-4------------6------------1--------------------9-8-9-8-4---|
E|--------------4---------------------------------------------|


Can't you tell that this is all just a contest? But baby I don't mean it
E|--------------------------------------------------------------|
B|--------------------------------------------------------------|
G|-6-------------------------3-- -------------------------------|
D|-6------------6------------3-----------------4--------6-------|
A|-4------------6------------1-----------------4--------6-------|
E|--------------4------------------------------2--------4-------|

CHORUS:

E|------------------------------------------------------------|
B|------------------------------------------------------------|
G|-6-------------------------3-- -------------------------6---| x2
D|-6------------6------------3----------------------------6---|
A|-4------------6------------1--------------------9-8-9-8-4---|
E|--------------4---------------------------------------------|


E|-----------------------------------------------|
B|-----------------------------------------------|
G|-6-------------------------3-- ----------------|
D|-6------------6------------3-----------4-------|
A|-4------------6------------1-----------4-------|
E|--------------4------------------------2-------|


E|-------------------------------------------------------------|
B|-------------------------------------------------------------|
G|-6-------------------------3---------------------------------|
D|-6------------6------------3---------------------------------|
A|-4------------6------------1---------------------------------|
E|--------------4----------------------------------------------|

BRIDGE:
 forgot to say out loud how beautiful you really are to me..And I need you, I'm sorry.

E|---------------------------------------------------------------|
B|---------------------------------------------------------------|
G|-------3-------------------------------------------------------|
D|--6----3---3---X2-4---6----------------------------------------|
A|--6----1---3------4---6----------------------------------------|
E|--4--------1------2---4----------------------------------------|

CHORUS:
E|------------------------------------------------------------|
B|------------------------------------------------------------|
G|-6-------------------------3-- -------------------------6---| x2
D|-6------------6------------3----------------------------6---|
A|-4------------6------------1--------------------9-8-9-8-4---|
E|--------------4---------------------------------------------|

E|-----------------------------------------------|
B|-----------------------------------------------|
G|-6-------------------------3-- ----------------|
D|-6------------6------------3-----------4-------|
A|-4------------6------------1-----------4-------|
E|--------------4------------------------2-------|

CHORUS:
E|------------------------------------------------------------|
B|------------------------------------------------------------|
G|-6-------------------------3-- -------------------------6---| x2
D|-6------------6------------3----------------------------6---|
A|-4------------6------------1--------------------9-8-9-8-4---|
E|--------------4---------------------------------------------|

E|-----------------------------------------------|
B|-----------------------------------------------|
G|-6-------------------------3-- ----------------|
D|-6------------6------------3-----------4-------|
A|-4------------6------------1-----------4-------|
E|--------------4------------------------2-------|

            
            
Suggest correction
Creating personal tab
Creating personal tab
You can edit any tab online and save it as your Personal.

You can edit, replace or remove any tab part or add personal notes – all changes will be seen only by you.

Personal tabs can be accessed anytime from any device, even offline.
Learn more »
comments
print report bad tab
3 comments total.
+1 reply
Dobbix 10 Apr 25, 2009 10:54 AM

awesome

0 reply
Featey 10 May 28, 2009 06:38 AM

Somehow sounds kinda wrong for me.
The 2nd powerchord -

- seems to low for me, somehow.

And to play eaasier first picking place, you can play on -

D 11
A 11

Maybe im wrong, but hey, thanks for attention.

0 reply
Featey 10 May 28, 2009 06:39 AM

D 11
A 11

*

guest
You may want to rate the tab now too:
select rating
Wanna post a correction for this tab? Suggest correction