Oops, an error
Loading. Please wait.

Please Dont Leave Me tab

version 2
version 2

Whole song

by P!nk
1,384 views 15 this week
no commentswrite comment
1 2 3 4 5
2 more votes to show rating
add to favorites
×
Save as Personal and add changes to this tab that will be seen only by you. Learn more ›
×
You can save this tab as Personal to edit and correct it or add notes. All changes will be seen only by you. Learn more »
launch autoscroll
font size
0
reset
how to read this tab
guitar tuner
edit
Autoscroll
slow
fast
+/-
esc
set tempo
stop
Author
[Intro]

e|---------------------------------------------------------------------------|
B|---------------------------------------------------------------------------|
G|---------------------------------------------------------------------------|
D|-------------------------4p3-4p3--------------------------4p3-4p3----------|
A|--4---4-4---4-4-4--4--4------------4---4-4---4-4-4--4--4-------------------|
E|---------------------------------------------------------------------------|


[Verse]

e|------------------------------------------------------------------------------|
B|------------------------------------------------------------------------------|
G|------------------------------------------------------------------------------|
D|-3---3-3---3-3-3--3--3-3--3-3-3-/-10--10-10---10-10-10--10--10-10--10-10-10---|
A|-4---4-4---4-4-4--4--4-4--4-4-4-/-11--11-11---11-11-11--11--11-11--11-11-11---|
E|------------------------------------------------------------------------------|

e|-------------------------------------------------------------------------------------|
B|-------------------------------------------------------------------------------------|
G|-------------------------------------------------------------------------------------|
D|-11--11-11---11-11-11--11--11-11--11-11-11--11--11-11---11-11-11--11--11-11--4p3-4p3-|
A|-13--13-13---13-13-13--13--13-13--13-13-13--13--13-13---13-13-13--13--13-13----------|
E|-------------------------------------------------------------------------------------|

e|------------------------------------------------------------------------------|
B|------------------------------------------------------------------------------|
G|------------------------------------------------------------------------------|
D|-3---3-3---3-3-3--3--3-3--3-3-3-/-10--10-10---10-10-10--10--10-10--10-10-10---|
A|-4---4-4---4-4-4--4--4-4--4-4-4-/-11--11-11---11-11-11--11--11-11--11-11-11---|
E|------------------------------------------------------------------------------|

e|--------------------------------------------------------------------------------------|
B|--------------------------------------------------------------------------------------|
G|--------------------------------------------------------------------------------------|
D|-11--11-11---11-11-11--11--11-11--11-11-11--11--11-11---11-11-11--11--11-11--11-11-11-|
A|-13--13-13---13-13-13--13--13-13--13-13-13--13--13-13---13-13-13--13--13-13--13-13-13-|
E|--------------------------------------------------------------------------------------|

 "When My heart is.."
e|---------------------------------------------------------------------------|
B|---------------------------------------------------------------------------|
G|---------------------------------------------------------------------------|
D|-----8---8-8--8-/-10-------------------------------------------------------|
A|-----9---9-9--9-/-11-------------------------------------------------------|
E|---------------------------------------------------------------------------|


[Chorus]

    C#5               G#               A#m
e|------------------------------------------------------------------------|
B|--------------------------------------6--6--6--6-6-6--6--6--------------|
G|--6--6--6--6-6-6----5--5--5--5-5-5----6--6--6--6-6-6--6--6--------------|
D|--6--6--6--6-6-6----6--6--6--6-6-6----8--8--8--8-8-8--8--8----4p3-4p3---| x2 then
A|--4--4--4--4-4-4----6--6--6--6-6-6----8--8--8--8-8-8--8--8--------------|
E|--------------------4--4--4--4-4-4----6--6--6--6-6-6--6--6--------------|

  "I always say that.."
    C#5               G#               A#m                F#               A#m
e|----------------------------------------------------------------------------------------|
B|--------------------------------------6--6--6--6-6-6---2--2--2--2-2-2---6--6--6--6-6-6--|
G|--6--6--6--6-6-6----5--5--5--5-5-5----6--6--6--6-6-6---3--3--3--3-3-3---6--6--6--6-6-6--|
D|--6--6--6--6-6-6----6--6--6--6-6-6----8--8--8--8-8-8---4--4--4--4-4-4---8--8--8--8-8-8--|
A|--4--4--4--4-4-4----6--6--6--6-6-6----8--8--8--8-8-8---4--4--4--4-4-4---8--8--8--8-8-8--|
E|--------------------4--4--4--4-4-4----6--6--6--6-6-6---2--2--2--2-2-2---6--6--6--6-6-6--|

    G#               C#5
e|-------------------------------------------------------------|
B|-------------------------------------------------------------|
G|--5--5--5--5-5-5---6---6-6---6-6-6--6--6---------------------|
D|--6--6--6--6-6-6---6---6-6---6-6-6--6--6---4p3-4p3-----------|
A|--6--6--6--6-6-6---4---4-4---4-4-4--4--4---------------------|
E|--4--4--4--4-4-4---------------------------------------------|


[Verse 2]

same as Verse 1

e|------------------------------------------------------------------------------|
B|------------------------------------------------------------------------------|
G|------------------------------------------------------------------------------|
D|-3---3-3---3-3-3--3--3-3--3-3-3-/-10--10-10---10-10-10--10--10-10--10-10-10---|
A|-4---4-4---4-4-4--4--4-4--4-4-4-/-11--11-11---11-11-11--11--11-11--11-11-11---|
E|------------------------------------------------------------------------------|

e|-------------------------------------------------------------------------------------|
B|-------------------------------------------------------------------------------------|
G|-------------------------------------------------------------------------------------|
D|-11--11-11---11-11-11--11--11-11--11-11-11--11--11-11---11-11-11--11--11-11--4p3-4p3-|
A|-13--13-13---13-13-13--13--13-13--13-13-13--13--13-13---13-13-13--13--13-13----------|
E|-------------------------------------------------------------------------------------|

e|------------------------------------------------------------------------------|
B|------------------------------------------------------------------------------|
G|------------------------------------------------------------------------------|
D|-3---3-3---3-3-3--3--3-3--3-3-3-/-10--10-10---10-10-10--10--10-10--10-10-10---|
A|-4---4-4---4-4-4--4--4-4--4-4-4-/-11--11-11---11-11-11--11--11-11--11-11-11---|
E|------------------------------------------------------------------------------|

e|--------------------------------------------------------------------------------------|
B|--------------------------------------------------------------------------------------|
G|--------------------------------------------------------------------------------------|
D|-11--11-11---11-11-11--11--11-11--11-11-11--11--11-11---11-11-11--11--11-11--11-11-11-|
A|-13--13-13---13-13-13--13--13-13--13-13-13--13--13-13---13-13-13--13--13-13--13-13-13-|
E|--------------------------------------------------------------------------------------|

e|---------------------------------------------------------------------------|
B|---------------------------------------------------------------------------|
G|---------------------------------------------------------------------------|
D|-----8---8-8--8-/-10-------------------------------------------------------|
A|-----9---9-9--9-/-11-------------------------------------------------------|
E|---------------------------------------------------------------------------|


[Chorus]

    C#5               G#               A#m
e|------------------------------------------------------------------------|
B|--------------------------------------6--6--6--6-6-6--6--6--------------|
G|--6--6--6--6-6-6----5--5--5--5-5-5----6--6--6--6-6-6--6--6--------------|
D|--6--6--6--6-6-6----6--6--6--6-6-6----8--8--8--8-8-8--8--8----4p3-4p3---| x2 then
A|--4--4--4--4-4-4----6--6--6--6-6-6----8--8--8--8-8-8--8--8--------------|
E|--------------------4--4--4--4-4-4----6--6--6--6-6-6--6--6--------------|

  "I always say that.."
    C#5               G#               A#m                F#               A#m
e|----------------------------------------------------------------------------------------|
B|--------------------------------------6--6--6--6-6-6---2--2--2--2-2-2---6--6--6--6-6-6--|
G|--6--6--6--6-6-6----5--5--5--5-5-5----6--6--6--6-6-6---3--3--3--3-3-3---6--6--6--6-6-6--|
D|--6--6--6--6-6-6----6--6--6--6-6-6----8--8--8--8-8-8---4--4--4--4-4-4---8--8--8--8-8-8--|
A|--4--4--4--4-4-4----6--6--6--6-6-6----8--8--8--8-8-8---4--4--4--4-4-4---8--8--8--8-8-8--|
E|--------------------4--4--4--4-4-4----6--6--6--6-6-6---2--2--2--2-2-2---6--6--6--6-6-6--|

    G#               C#5
e|-------------------------------------------------------------|
B|-------------------------------------------------------------|
G|--5--5--5--5-5-5---6---6-6---6-6-6--6--6--6-6-6-6------------|
D|--6--6--6--6-6-6---6---6-6---6-6-6--6--6--6-6-6-6------------|
A|--6--6--6--6-6-6---4---4-4---4-4-4--4--4--4-4-4-4------------|
E|--4--4--4--4-4-4---------------------------------------------|


[Bridge]

  "I forgot to say out loud.."
e|---------------------------------------------------------------------------|
B|---------------------------------------------------------------------------|
G|--15--15-/-13-13-/-8--8-8--8--8-\-11-/-10-10-/-8-\-11-/-10-10--8--6--------|
D|--x---x----x--x----x--x-x--x--x---x----x--x----x---x----x--x---x--x--------|
A|--13--13-/-11-11-/-6--6-6--6--6-\-9--/-8--8--/-6-\-9--/-8--8---6--4--------|
E|---------------------------------------------------------------------------|

e|------------------------------------------------------------------------------------------------------|
B|------------------------------------------------------------------------------------------------------|
G|--15--15-/-13-13-/-8--8-8--8--8-\-11-/-10-10-/-8-\-11-/-10-10-10-10-6---6-6---6-6-6--6--6-6--6-6-6----|
D|--x---x----x--x----x--x-x--x--x---x----x--x----x---x----x--x--x--x--x---x-x---x-x-x--x--x-x--x-x-x----|
A|--13--13-/-11-11-/-6--6-6--6--6-\-9--/-8--8--/-6-\-9--/-8--8--8--8--4---4-4---4-4-4--4--4-4--4-4-4----|
E|------------------------------------------------------------------------------------------------------|

e|-----------------------------|
B|-----------------------------|
G|--8--8--8--8-8-8--8~~--------|
D|--x--x--x--x-x-x--x~~--------| Sustain last chord
A|--6--6--6--6-6-6--6~~--------|
E|-----------------------------|

  "Da Da da da.."
e|---------------------------------------------|
B|---------------------------------------------|
G|---------------------------------------------|
D|--3-------10-------10-------4p3p4p3----------|
A|--4-------11-------13------------------------|
E|---------------------------------------------|

 "Please.. Please.. Don't leave me.."
 (Palm Mute)
e|-----------------------------------------------------------------------------|
B|-----------------------------------------------------------------------------|
G|-----------------------------------------------------------------------------|
D|--3--3-3--3-3-/-10--10-10--10-10-/-11--11-11--11-11-11--11--11-11---4p3p4p3--|
A|--4--4-4--4-4-/-11--11-11--11-11-/-13--13-13--13-13-13--13--13-13------------|
E|-----------------------------------------------------------------------------|


 [Final Chorus]

 "Baby.."
    C#5               G#               A#m
e|------------------------------------------------------------------------|
B|--------------------------------------6--6--6--6-6-6--6--6--------------|
G|--6--6--6--6-6-6----5--5--5--5-5-5----6--6--6--6-6-6--6--6--------------|
D|--6--6--6--6-6-6----6--6--6--6-6-6----8--8--8--8-8-8--8--8----4p3-4p3---| x2 then
A|--4--4--4--4-4-4----6--6--6--6-6-6----8--8--8--8-8-8--8--8--------------|
E|--------------------4--4--4--4-4-4----6--6--6--6-6-6--6--6--------------|

  "I always say that.."
    C#5               G#               A#m                F#              
e|-----------------------------------------------------------------------|
B|--------------------------------------6--6--6--6-6-6---2--2--2--2-2-2--|
G|--6--6--6--6-6-6----5--5--5--5-5-5----6--6--6--6-6-6---3--3--3--3-3-3--|
D|--6--6--6--6-6-6----6--6--6--6-6-6----8--8--8--8-8-8---4--4--4--4-4-4--|
A|--4--4--4--4-4-4----6--6--6--6-6-6----8--8--8--8-8-8---4--4--4--4-4-4--|
E|--------------------4--4--4--4-4-4----6--6--6--6-6-6---2--2--2--2-2-2--|


    C#5               G#                A#m
e|------------------------------------------------------------------------|
B|--------------------------------------6--6--6--6-6-6--6--6--------------|
G|--6--6--6--6-6-6----5--5--5--5-5-5----6--6--6--6-6-6--6--6--------------|
D|--6--6--6--6-6-6----6--6--6--6-6-6----8--8--8--8-8-8--8--8----4p3-4p3---| x2 then
A|--4--4--4--4-4-4----6--6--6--6-6-6----8--8--8--8-8-8--8--8--------------|
E|--------------------4--4--4--4-4-4----6--6--6--6-6-6--6--6--------------|


    C#5               G#               A#m                F#               A#m
e|----------------------------------------------------------------------------------------|
B|--------------------------------------6--6--6--6-6-6---2--2--2--2-2-2---6--6--6--6-6-6--|
G|--6--6--6--6-6-6----5--5--5--5-5-5----6--6--6--6-6-6---3--3--3--3-3-3---6--6--6--6-6-6--|
D|--6--6--6--6-6-6----6--6--6--6-6-6----8--8--8--8-8-8---4--4--4--4-4-4---8--8--8--8-8-8--|
A|--4--4--4--4-4-4----6--6--6--6-6-6----8--8--8--8-8-8---4--4--4--4-4-4---8--8--8--8-8-8--|
E|--------------------4--4--4--4-4-4----6--6--6--6-6-6---2--2--2--2-2-2---6--6--6--6-6-6--|

    G#               C#5
e|-------------------------------------------------------------|
B|-------------------------------------------------------------|
G|--5--5--5--5-5-5---6---6-6---6-6-6--6--6---------------------|
D|--6--6--6--6-6-6---6---6-6---6-6-6--6--6-----4p3p4p3---------|
A|--6--6--6--6-6-6---4---4-4---4-4-4--4--4---------------------|
E|--4--4--4--4-4-4---------------------------------------------|


[Outro]

sustain notes

   "Baby.."
e|----------------------------------------------|
B|----------------------------------------------|
G|----------------------------------------------|
D|----3~------------------3~--------------------|
A|----4~--------6~--------4~--------------------|
E|--------------4~------------------------------|



************************************

| x  Dead note
| p  Pull-off
| /  Slide up
| \  Slide down
| ~  Vibrato

************************************

            
            
Suggest correction
Creating personal tab
Creating personal tab
You can edit any tab online and save it as your Personal.

You can edit, replace or remove any tab part or add personal notes – all changes will be seen only by you.

Personal tabs can be accessed anytime from any device, even offline.
Learn more »
Give kudos to tab author, rate the tab!
1 2 3 4 5
comments
print report bad tab
guest
You may want to rate the tab now too:
select rating
Wanna post a correction for this tab? Suggest correction