Oops, an error
Loading. Please wait.

So What tab

version 5
version 5

Whole song

Interactive

by P!nk
712 views 9 this week
no commentswrite comment
1 2 3 4 5
x 6
add to favorites
×
Save as Personal and add changes to this tab that will be seen only by you. Learn more ›
×
You can save this tab as Personal to edit and correct it or add notes. All changes will be seen only by you. Learn more »
launch autoscroll
font size
0
reset
how to read this tab
guitar tuner
edit
Autoscroll
slow
fast
+/-
esc
set tempo
stop
For those who are just sick and tired of everyone else ragging on them

Intro: e|----7--------------|
       B|-757--75-----------|
       G|---------6-6464----| X3
       D|----------------74-|
       A|-------------------|
       E|-------------------|

          Nanana na nana na. Nananana nana. Nanana na nana na. Nananana nana.

Verse: e|----7--------------|
       B|-757--75-----------|
       G|---------6-6464----| X4
       D|----------------74-|
       A|-------------------|
       E|-------------------|

          I guess I just lost my husband; I don't know where he went.

          So I'm gonna drink my money, I'm gonna pay his rent (ha, nope).

          I got a brand new attitude and I'm gonna wear it tonight.

          I wanna get in trouble, I wanna start a fight.

Pre-Chorus: e|----7-------x-|
            B|-757--75----x-|
            G|---------6~-x-|
            D|------------x-|
            A|------------x-|
            E|------------x-|

               Nanana na nana na. I'm gonna start a fight.

            e|----7--------------|
            B|-757--75-----------|
            G|---------6-6464----|
            D|----------------74-|
            A|-------------------|
            E|-------------------|

               Nanana na nana na. I WANNA START A FIGHT.

Chorus: e|---------------------------------------|
        B|---------------------------------------|
        G|------------6-6-6-66----------7-7-7-77-| X2
        D|-6-7-7-7-77-6-6-6-66-4-4-4-44-7-7-7-77-|
        A|-6-7-7-7-77-4-4-4-44-4-4-4-44-5-5-5-55-|
        E|-4-5-5-5-55----------2-2-2-22----------|

           (So) So what? I'm still a rock star, I got my rock moves, and I don't need you.

           (But) Guess what? I'm having more, and now that we're done I'm gonna show you.

        e|-----------------------------------------|
        B|-----------------------------------------|
        G|------------6-6-6-66----------7-7-777777-|
        D|-6-7-7-7-77-6-6-6-66-4-4-4-44-7-7-777777-|
        A|-6-7-7-7-77-4-4-4-44-4-4-4-44-5-5-555555-|
        E|-4-5-5-5-55----------2-2-2-22------------|

           Tonight, I'm alright. I'm just fine, and you're a toooool.

        e|-------------------------------------x-|
        B|-------------------------------------x-|
        G|----------6-6-6-66----------7-7-7-77-x-|
        D|-7-7-7-77-6-6-6-66-4-4-4-44-7-7-7-77-x-|
        A|-7-7-7-77-4-4-4-44-4-4-4-44-5-5-5-55-x-|
        E|-5-5-5-55----------2-2-2-22----------x-|

           (So) So what? I'm a rock star, I've got my rock moves and I don't want you tonight (check my flow)

Verse: e|----7--------------|
       B|-757--75-----------|
       G|---------6-6464----| X4
       D|----------------74-|
       A|-------------------|
       E|-------------------|

          The waiter just took my table and gave it to Jessica Simp-shit!

          I guess I'll go sit with the drummer boy, at least he'll know how to hit.

          What if this song's on the radio? Then somebody's gonna die.

          I'm gonna get in trouble 'cause my ex will start a fight.


Pre-Chorus: e|----7-------x-|
            B|-757--75----x-|
            G|---------6~-x-|
            D|------------x-|
            A|------------x-|
            E|------------x-|

               Nanana na nana na. He's gonna start a fight.

            e|----7--------------|
            B|-757--75-----------|
            G|---------6-6464----|
            D|----------------74-|
            A|-------------------|
            E|-------------------|

               Nanana na nana na. WE'RE GONNA GET IN A FIGHT!

Chorus: e|---------------------------------------|
        B|---------------------------------------|
        G|------------6-6-6-66----------7-7-7-77-| X2
        D|-6-7-7-7-77-6-6-6-66-4-4-4-44-7-7-7-77-|
        A|-6-7-7-7-77-4-4-4-44-4-4-4-44-5-5-5-55-|
        E|-4-5-5-5-55----------2-2-2-22----------|

           (So) So what? I'm still a rock star, I got my rock moves, and I don't need you.

           (But) Guess what? I'm having more, and now that we're done I'm gonna show you.

        e|-----------------------------------------|
        B|-----------------------------------------|
        G|------------6-6-6-66----------7-7-777777-|
        D|-6-7-7-7-77-6-6-6-66-4-4-4-44-7-7-777777-|
        A|-6-7-7-7-77-4-4-4-44-4-4-4-44-5-5-555555-|
        E|-4-5-5-5-55----------2-2-2-22------------|

           Tonight, I'm alright. I'm just fine, and you're a toooool.

        e|-------------------------------------x-|
        B|-------------------------------------x-|
        G|----------6-6-6-66----------7-7-7-77-x-|
        D|-7-7-7-77-6-6-6-66-4-4-4-44-7-7-7-77-x-|
        A|-7-7-7-77-4-4-4-44-4-4-4-44-5-5-5-55-x-|
        E|-5-5-5-55----------2-2-2-22----------x-|

           (So) So what? I'm a rock star, I've got my rock moves and I don't want you tonight

Bridge: e|-5-------5-------5---------------|
        B|---5-3-----5-3-----5-3-----------|
        G|-------6-------6-------6-4-4676~-| X2
        D|---------------------------------|
        A|---------------------------------|
        E|---------------------------------|

Bridge Chord: e|-----------|
              B|-----------|
              G|-----------| X8
              D|-x-x-x-777-|
              A|-x-x-x-777-|
              E|-x-x-x-555-|

           You weren't there, you never were. You weren't all, but that's not fair.

           I gave you life, I gave you all. You weren't there, you let me fall.

Chorus: e|---------------------------------------|
        B|---------------------------------------|
        G|------------6-6-6-66----------7-7-7-77-| X2
        D|-6-7-7-7-77-6-6-6-66-4-4-4-44-7-7-7-77-|
        A|-6-7-7-7-77-4-4-4-44-4-4-4-44-5-5-5-55-|
        E|-4-5-5-5-55----------2-2-2-22----------|

           (So) So what? I'm still a rock star, I got my rock moves, and I don't need you.

           (But) Guess what? I'm having more, and now that we're done I'm gonna show you.

        e|-----------------------------------------|
        B|-----------------------------------------|
        G|------------6-6-6-66----------7-7-777777-|
        D|-6-7-7-7-77-6-6-6-66-4-4-4-44-7-7-777777-|
        A|-6-7-7-7-77-4-4-4-44-4-4-4-44-5-5-555555-|
        E|-4-5-5-5-55----------2-2-2-22------------|

           Tonight, I'm alright. I'm just fine, and you're a toooool.

        e|-------------------------------------x-|
        B|-------------------------------------x-|
        G|----------6-6-6-66----------7-7-7-77-x-|
        D|-7-7-7-77-6-6-6-66-4-4-4-44-7-7-7-77-x-|
        A|-7-7-7-77-4-4-4-44-4-4-4-44-5-5-5-55-x-|
        E|-5-5-5-55----------2-2-2-22----------x-|

           (So) So what? I'm a rock star, I've got my rock moves and I don't want you tonight.

       e|-5-------5-------5---------------|
       B|---5-3-----5-3-----5-3-----------|
       G|-------6-------6-------6-4-4676~-| X2
       D|---------------------------------|
       A|---------------------------------|
       E|---------------------------------|

          No no, no no. I don't want you tonight.

          I'm gonna show you

       e|-----------------------------------------|
       B|-----------------------------------------|
       G|------------6-6-6-66----------7-7-777777-|
       D|-6-7-7-7-77-6-6-6-66-4-4-4-44-7-7-777777-|
       A|-6-7-7-7-77-4-4-4-44-4-4-4-44-5-5-555555-|
       E|-4-5-5-5-55----------2-2-2-22------------|

          Tonight, I'm alright. I'm just fine, and you're a toooool.

       e|-------------------------------------x-|
       B|-------------------------------------x-|
       G|----------6-6-6-66----------7-7-7-77-x-|
       D|-7-7-7-77-6-6-6-66-4-4-4-44-7-7-7-77-x-|
       A|-7-7-7-77-4-4-4-44-4-4-4-44-5-5-5-55-x-|
       E|-5-5-5-55----------2-2-2-22----------x-|

          (So) So what? I'm a rock star, I've got my rock moves and I don't want you tonight.

Outro: e|----7--------------|
       B|-757--75-----------|
       G|---------6-6464----| X2
       D|----------------74-|
       A|-------------------|
       E|-------------------|

            
            
Suggest correction
Creating personal tab
Creating personal tab
You can edit any tab online and save it as your Personal.

You can edit, replace or remove any tab part or add personal notes – all changes will be seen only by you.

Personal tabs can be accessed anytime from any device, even offline.
Learn more »
comments
print report bad tab
guest
You may want to rate the tab now too:
select rating
Wanna post a correction for this tab? Suggest correction