Oops, an error
Loading. Please wait.

U Plus Ur Hand tab

version 2
version 2

Whole song

Interactive

by P!nk
17,542 views 15 this week
1 commentread comment
1 2 3 4 5
x 3
add to favorites
×
Save as Personal and add changes to this tab that will be seen only by you. Learn more ›
×
You can save this tab as Personal to edit and correct it or add notes. All changes will be seen only by you. Learn more »
launch autoscroll
font size
0
reset
how to read this tab
guitar tuner
edit
Autoscroll
slow
fast
+/-
esc
set tempo
stop
Author
Pink
You and Your Hand
I'm Not Dead
Tabbed by Leah M. (avrilfreak_8@hotmail.com)
Tuning:Standard (EADGBe)

This song is VERY easy to play,and is about 100% accurate. Enjoy!!              
                          
Verse 1

e|-------------------------------------------------|
B|-------------------------------------------------|
G|--9--12--7--99--12--7--99--12--7--99--12--7--99--|
D|--9--12--7--99--12--7--99--12--7--99--12--7--99--|
A|--7--10--5--77--10--5--77--10--5--77--10--5--77--|
E|-------------------------------------------------|

e|----------------------------|
B|----------------------------|         PLAY TWICE
G|--12--7--99--14--12--7--99--|
D|--12--7--99--14--12--7--99--|
A|--10--5--77--12--10--5--77--|
E|----------------------------|

Chorus

e|---------------------------------------------------------------|
B|---------------------------------------------------------------|
G|--99999999------------------1212121212121212-------------------|    x2
D|--99999999-1010101010101010-1212121212121212-1212121212121212--|
A|--77777777-1010101010101010-1010101010101010-1212121212121212--|
E|-----------8 8 8 8 8 8 8 8-------------------1010101010101010--|

e|-----------------------------|
B|-----------------------------|
G|-----------------------------|            x2
D|--77777777-1010101010101010--|
A|--77777777-1010101010101010--|
E|--55555555-8 8 8 8 8 8 8 8 --|


After the bottom part of the chorus, play the top part once more.

Verse 2
Same as verse 1.

Chours

Verse 3
same as verse 1 and 2.

Chorus


That's it. Pretty easy,eh??
Suggest correction
Creating personal tab
Creating personal tab
You can edit any tab online and save it as your Personal.

You can edit, replace or remove any tab part or add personal notes – all changes will be seen only by you.

Personal tabs can be accessed anytime from any device, even offline.
Learn more »
Give kudos to tab author, rate the tab!
1 2 3 4 5
comments
print report bad tab
1 comment total.
0 reply
deluge_nl 145 Mar 08, 2007 04:37 AM

I dont think the part in the verse1 is right, it sounds more like they slide up a bit.. The chorus isn't correct either, have a look at the one i tabbed.. sounds better that way i think.

guest
You may want to rate the tab now too:
select rating
Wanna post a correction for this tab? Suggest correction