Oops, an error
Loading. Please wait.

Walk Of Shame Tab

by P!nk
659 views 1 this week
no commentswrite comment
1 2 3 4 5
please rate
add to favorites
launch autoscroll
font size
0
reset
how to read this tab
guitar tuner
Tab Pro tools
  • play this tab
  • loop segment
  • change instrument
  • show fretboard
  • metronome
×
Best way to learn
"Walk Of Shame"
Autoscroll
slow
fast
+/-
esc
set tempo
stop
Contributor
Difficulty
novice
Pink
Walk of Shame
Standard

x - mute
+ - harmonic
* - palm mute
/ - slide
~ - let ring


Intro/Verse A
e|-----------------------------------|
B|---------------(8)(8)--------------|
G|--------------x-9--9---------------|
D|--x-5-5--7-7--x-9--9--10-10-10-----| x6
A|--x-5-5--7-7--x-7--7--10-10-10-----|
E|--x-3-3--5-5----------8--8--8------|

Pre-chorus - similar to Intro/Verse A


Chorus A
e|---------------------------------------|
B|---------------------------------------|
G|------------------9-9-9-9--------------|
D|--5-5-5-5-7-7-7-7-9-9-9-9-10-10-10-10--| x1.75
A|--5-5-5-5-7-7-7-7-7-7-7-7-10-10-10-10--|
E|--3-3-3-3-5-5-5-5---------8--8--8--8---|

Chorus B "please god"
e|-----------------------------------|
B|-----------------------------------|
G|------------------7-7-7-7-7-7-7-7--|
D|--7-7-7-7-5-5-5-5-7-7-7-7-7-7-7-7--| x2
A|--7-7-7-7-5-5-5-5-5-5-5-5-5-5-5-5--|
E|--5-5-5-5-3-3-3-3------------------|

Chorus C "I Promise"
e|-----------------------------------------------------|
B|-----------------8-8-8-8--------------------------7--|
G|-----------------9-9-9-9----------7-7-7-7-7-7-7-7-7--|
D|-7-7-7-7-9-9-9-9-9-9-9-9-10101010-7-7-7-7-7-7-7-7-7--|
A|-7-7-7-7-9-9-9-9-7-7-7-7-10101010-5-5-5-5-5-5-5-5-5--|
E|-5-5-5-5-7-7-7-7---------8-8-8-8---------------------|


Intro/Verse A

Pre-chorus

Chorus A B & C

Intro/Verse (2 times)

Bridge "I shouldn't have let"
e|---------------------------|---------------------------------|
B|-------------------------------------------------------------|
G|---------------9---------11/12-12--------9----------11/12-12-|
D|--5-5-5--7-7-7-9---------11/12-12--7-7-7-9----------11/12-12-|
A|--5-5-5--7-7-7-7--7+-7+--9/-10-10--7-7-7-7--x-------9-/10-10-|
E|--3-3-3--5-5-5---------------------5-5-5-------12+-----------|...
Cont.               *  *                         
e|-------------------------------------------------------------|
B|-------------------------------------------------------------|
G|--------9\\\--x-5-5--7~~7~~7~~7~~7~7~7~7~7~7~7~7~--4~~--x----|
D|--7-7-7-9\\\--x-5-5--7~~7~~7~~7~~7~7~7~7~7~7~7~7~--5~~--x----|
A|--7-7-7-7\\\--x-3-3--5~~5~~5~~5~~5~5~5~5~5~5~5~5~--5~~--x----|
E|..5-5-5--------------------------------------------3~~-------|


Chorus A B & C

Intro/Verse (4 times)


DONE!
comments
We did not receive enough feedback on this tab! Please rate:
print report bad tab
1 2 3 4 5
I want to post or [tab]
guest
You may want to rate the tab now too:
select rating
Please do not post tabs as comments. Select "correction" instead!