Oops, an error
Loading. Please wait.

All The Way 4 U Tab

version 2
version 2

Whole song

Interactive

4,408 views 6 this week
no commentswrite comment
1 2 3 4 5
please rate
add to favorites
launch autoscroll
font size
0
reset
how to read this tab
guitar tuner
Autoscroll
slow
fast
+/-
esc
set tempo
stop
Help us to improve Ultimate-Guitar.com Take our survey!
×
Author
Retabbed in relation to capo. I find it easier to read. 

Played with Capo in 2nd fret.

Intro / verse:

e|----------3~---------------------------3~------------------|
H|--------3---3-------3-------3--------3---3-------3-------3-|
G|------0-----------2-------0--------0-----------2-------0---|
D|----0-----------0-------0--------0-----------0-------0-----|
A|-3~-----------2~--------------0~-----------2~--------------|
E|----------------------3~---------------------------3~------|

Bridge:

e|---------------1~------|----------------------|
H|---------1---------1---|---------1-----3~-0---|
G|-----------------------|-----2-----2--------2-|
D|-----3-----3---------3-|---2---------2--------|
A|---3---------3---------|-0-----0--------------|
E|-1-----1---------------|----------------------|

e|---------------1~------|----------------------|
H|---------1---------1---|---------1-----3~-----|
G|-----------------------|-----2-----2----------|
D|-----3-----3---------3-|---2---------2--------|
A|---3---------3---------|-0-----0--------------|
E|-1-----1---------------|----------------------|

e|---------------1~------|-----------------|
H|---------1---------1---|-----0---1---3---|
G|-----------------------|-----------------|
D|-----3-----3---------3-|---2---2---2-----|
A|---3---------3---------|-0---------------|
E|-1-----1---------------|-----------------|

Chorus:

e|-----3-------3-----1-------0-----------------------------------|
H|---3---3---3-----1---1---1---1-----3-------3-------3-------3---|
G|-5-------6-----2-------0---------0---0---0---0---0---0---0---0-|
D|-------------------------------3-------2-------0---------------|
A|-------------------------------------------------------3-------|
E|---------------------------------------------------------------|

e|-----3-------3-----1-------0----------0~~-|
H|---3---3---3-----1---1---1---1-----3------|
G|-5-------6-----2-------0---------0--0-----|
D|-------------------------------3----------|
A|------------------------------------------|
E|------------------------------------------|

And then the last bit:

e|----------------------|
H|----------------------|
G|----------------------|
D|-3~---7~---3~---7--5--|
A|-3~---7~---3~---7--5--|
E|-1~---5~---1~---5--3--|
Suggest correction
Give kudos to tab author, rate the tab!
1 2 3 4 5
comments
print report bad tab
guest
You may want to rate the tab now too:
select rating
Wanna post a correction for this tab? Suggest correction