Oops, an error
Loading. Please wait.

Beautiful Ones Chords

29,274 views 69 this week
5 commentsread comments
1 2 3 4 5
x 15
add to favorites
launch autoscroll
font size
0
reset
transpose
0
reset
display chords
guitar tuner
Autoscroll
slow
fast
+/-
esc
set tempo
stop
Help us to improve Ultimate-Guitar.com Take our survey!
×
Author
Difficulty
novice
Poets of the Fall - The Beautiful Ones

VERSE
  Am                         C
e|--------------------------|--------------------------|
B|-------1-----1-----1------|-------1-----1-----1------|
G|---------2-----2-----2----|---------0-----0-----0---0|
D|---2-------2-----2--------|---2-------2-----2-----2--|
A|-0---0-----------------0-2|-3---3--------------------|
E|--------------------------|--------------------------|

Am                              C                                     
  Flies with a broken wing, she's ever so graceful, so like an angel,
      Am                   C
but I see, tears flow quietly.
Am                                         C
  The struggle she's seen this spring, when nothing comes dancing,
                  Am                           C
paying a handsome fee, and still she smiles at me.


G                     G
 And I can't take it, no I can't help but wonder...

CHORUS
  F             C             G             C
e|---------------------------------------------------0---|
B|-------1-------------3-------------3-------------3-----|
G|---------2---2-----0---0---0----------0--------0-------|
D|-----3-----3-----2-------2-------0-------0---2---------|
A|---3-----------3---------------2-----------3-----------|
E|-1---------------------------3-------------------------|

  F             C             G
e|-----------------------------------------------0-------|
B|-------1-------------3-------------3-----3-------3-----|
G|---------2---2-----0---0---0---------0-----0-------0---|
D|-----3-----3-----2-------2-------0-----0-----0-------0-|
A|---3-----------3---------------2-----------------------|
E|-1---------------------------3-------------------------|

F         C             G         C
Why do we sacrifice the beautiful ones?
F          C                G
How do you break a heart of gold?
F         C             G         C
Why do we sacrifice our beautiful souls?
F         C             G
Heroes of tales unsung, untold.


Am                             C
  Sweet as an angel sings, she gives though she has none left but the
          Am                C
last one, free, unhesitatingly.


G                                       G 
 And I am humbled, I'm a broken mirror, and I can't help but wonder...


Why do we sacrifice the beautiful ones?
How do you break a heart of gold?
Why do we sacrifice our beautiful souls?
Heroes of tales unsung, untold.

Why do we sacrifice the beautiful ones?
Why when they walk with love alone?
Why do we sacrifice our beautiful souls?
Just trying to find their way home.


-- Just listen to the song to get the rhythm. --
Suggest correction
comments
print report bad tab
5 comments total. Showing first comments.
0 reply
zilveztre 10 Aug 20, 2005 12:00 AM

hey, if it's not too much to ask... i would like you to put the chorus part, thanks

0 reply
Bloodraven 10 Sep 26, 2005 11:34 AM

Yes, please tab the chorus too, cuz it is not so simple for a couple of us...thanks!

0 reply
Fenris-the-wolf 10 Jan 03, 2006 04:46 AM

chorus (found it somewhere, seems to be right)

e-------------------------------------------------------------------------0-
B-----------1--------------------3-------------------3-----------------3----
G--------2-----2-----2--------0-----0-----0-------------0-----------0-------
D-----3-----------3--------2-----------2----------0--------0-----2----------
A--3--------------------3----------------------2--------------3-------------
E-------------------------------------------3-------------------------------

e-----------------------------------------------------------------0----------
B-----------1--------------------3--------------------3--------3--------3----
G--------2-----2-----2--------0-----0-----0--------------0-----------0-----0-
D-----3-----------3--------2-----------2-----------0--------0----------------
A--3--------------------3-----------------------2----------------------------
E--------------------------------------------3-------------------------------

guest
You may want to rate the tab now too:
select rating
Wanna post a correction for this tab? Suggest correction