Oops, an error
Loading. Please wait.
We have Chord Pro version of Carnival Of Rust.
It's the closest thing you can get to the original song and it has interactive parts. Check out the tab »
×
5,291 views 9 this week
2 commentsread comments
1 2 3 4 5
x 4
add to favorites
launch autoscroll
font size
0
reset
how to read this tab
guitar tuner
Autoscroll
slow
fast
+/-
esc
set tempo
stop
Difficulty
intermediate
S for slide
This is more accurate than the other tabs

E---------------------------------------------------------------|
B---------------------------------------------------------------|
G---9--11-9--11s12----9--11-9--11s12---9--11-9--11s12---9-------|
D--9-9-----9---------9-9-----9-------9--9-----9-----------------|
A-7----------------10---------------0-----------------8--8------|
E----------------------------------------------------8-----8s10-|

E------0--------------------------------------------|
B---------------------------------------------------|
G---11--11------------------------------------------|
D-9--------9----------------------------------------|
A---------------------------------------------------|
E---------------------------------------------------|

By Noha =)
Suggest correction
comments
print report bad tab
2 comments total.
0 reply
GuitarinOutLoud 10 Mar 15, 2013 03:42 AM

you could make tabs at primary strings that would have been easier.. anyway its still accurate

0 reply
Karl_Wake 10 Dec 26, 2013 07:38 AM

OOHH MA GAAAAAAAAD !!!

Sorry but nooo !!!!
This is not POTF at all !

Please, if you can't make a real tab (like me anyway), don't make something for make something...

guest
You may want to rate the tab now too:
select rating
Wanna post a correction for this tab? Suggest correction