Oops, an error
Loading. Please wait.

Carnival Of Rust Bass Tab

version 2
version 2

Whole song

Interactive

4,092 views 6 this week
no commentswrite comment
1 2 3 4 5
please rate
add to favorites
launch autoscroll
font size
0
reset
guitar tuner
Autoscroll
slow
fast
+/-
esc
set tempo
stop
Help us to improve Ultimate-Guitar.com Take our survey!
×
Author
Poets Of The Fall – Carnival Of Rust   Bass Tab

There was only one bass tab for this song, which was not very satisfying so I made
quickly my own one. ;)
Should be better than ok, but I will improve it probably yet. But enjoy this version at first. :)


Standard

Tabbed by Der Bassist

updated: 02-10-09

Intro
G|---------------------------------|
D|-----------------11---(13/-10)---|
A|---8---11---13-------------------|
E|---------------------------------|


1.Verse x4
G|----------------------------|
D|----------------------------|
A|------------------3-4-------|
E|--4-3-1---4---6---------8---|

G|----------------------------------|
D|----------------------------------|
A|-----------------------3-4--—-3---|
E|---1---1-3-4---1-6---6------------|

G|-------------------------------|
D|-------------------------------|
A|-------------------3-4---4-6---|
E|---1---3-4---6---6-------------|

G|----------------------------------|
D|----------------------------------|
A|-----------------------3-4—-4-3---|
E|---1—--3-4---4-8-6---6------------|


1. Chorus x 2
G|-----------------------------------------------|
D|-----------------------------------------------|
A|---8--8----8---6--6---6---4--4-—--4---1--1-----|
E|---------8----------6-----------4----------4---|

G|-----------------------|
D|-----------------------|
A|---4-4—--4--1--1-1-----|
E|-------4-----------4---| 


Bridge (only guitar...)


2.Vers x4
G|--------------------------------|
D|--------------------------------|
A|--------------------3-4---4-6---|
E|--4-3-1---4---6---6-------------|

G|---------------------------------------|
D|---------------------------------------|
A|---------------------------3-4--—4-3---|
E|---0-1---1-3-4---4-8-6---6-------------|

G|-----------------------------------|
D|-----------------------------------|
A|-----------------------3-4---4-6---|
E|---0-1---1-4---1-6---6-------------|

G|-------------------------------------|
D|-------------------------------------|
A|-------------------------3-4---4-3---|
E|---0-1---1-4---4-8-6---6-------------|



2.Chorus x4


Bridge		(guitar piano violin)

second time + Bass
G|-----------------------|
D|-----------------------|
A|---8---6---4---1-------|
E|-------------------4---|


Outro 1  x2
G|--------------------------------------------------------|
D|--------------------------------------------------------|
A|---8--8----8----6--6----6-----4--4----4------1--1-------|
E|---------8---8--------6---6---------4---4---------4-4---|

G|--------------------------------------------------|
D|--------------------------------------------------|
A|---8--8----8----6---6-----6----4--4----4-1--1-----|
E|---------8---8----8-----8---8-----------------4---|

G|----------------------------|
D|----------------------------|
A|---4--4----4---1------------|
E|---------4---4-----4---1~---|

Outro 2
G|---------------------------|
D|-----------------11---10---|
A|---8---11---13-------------|
E|---------------------------|
Suggest correction
What's this?
You can suggest a correction to this tab. Community and Mods will review your correction and vote to approve or reject it.
comments
We did not receive enough feedback on this tab! Please rate:
print report bad tab
1 2 3 4 5
guest
You may want to rate the tab now too:
select rating
Please do not post tabs as comments. Select "correction" instead!