Oops, an error
Loading. Please wait.

Cradled In Love Tab

version 1
version 1

Whole song

Interactive

12,525 views 87 this week
3 commentsread comments
1 2 3 4 5
excellent!
x 10
add to favorites
launch autoscroll
font size
0
reset
how to read this tab
guitar tuner
Tab Pro tools
  • play this tab
  • loop segment
  • change instrument
  • show fretboard
  • metronome
×
Best way to learn
"Cradled In Love"
Autoscroll
slow
fast
+/-
esc
set tempo
stop
Contributor
Difficulty
intermediate
Hey..
This is my first tab. It may not be 100% correct. But sounds good to me. So if you feel 
something ain't correct, please mail me on rohandvora@gmail.com or find me on Facebook

Intro:
  E                            Cm
E|----------------------------|--------------4----------------|
B|-------5-----------5p4------|-------5---------5-----5-------|
G|-----4-----------4----4-----|-----6----6--------6-----6-----|  X2
D|---6-----------6--------6---|---6--------6--------6-----6---|
A|-7-----------7------------7-|-4---------------------------4-|
E|----------------------------|-------------------------------|

Verse 1:
You had the..all those gazes
  E                            Cm
E|----------------------------|--------------4----------------|
B|-------5-----------5p4------|-------5---------5-----5-------|
G|-----4-----------4----4-----|-----6----6--------6-----6-----|
D|---6-----------6--------6---|---6--------6--------6-----6---|
A|-7-----------7------------7-|-4-----------------------------|
E|----------------------------|-------------------------------|

To pierce my guard..to faraway places
  Bsus2                         Asus2
E|--------------0--------------|--------------0---------------|
B|-------4--------4-----4------|-------0---------0-----0------|
G|-----4----4-------4-----4----|-----2----2--------2-----2----|
D|---4--------4-------4-----4--|---2--------2--------2-----2--|
A|-2---------------------------|-0----------------------------|
E|-----------------------------|------------------------------|

Told me I'll never be alone, cos you're right there
  Bsus2                         Asus2
E|--------------0--------------|--------------0---------------|
B|-------4--------4-----4------|-------0---------0-----0------|
G|-----4----4-------4-----4----|-----2----2--------2-----2----|
D|---4--------4-------4-----4--|---2--------2--------2-----2--|
A|-2--------------------------2|-0----------------------------|
E|-----------------------------|------------------------------|

  Asus2
E|--------------0--------------|
B|-------2p0-------------------|
G|-----2----2------------------|
D|---2--------2----------------|
A|-0---------------------------|
E|-----------------------------|

Similarly for "We took a gamble...I was your starlight"
Chorus:
  E                             Cm
E|----------------------------|------------------------------|
B|-------5------5------5------|-------5------5------5--------|
G|-----4----4------4------4---|-----6----6------6------6-----|
D|---6--------6------6------6-|---6--------6------6------6---|
A|-7--------------------------|-4----------------------------|
E|----------------------------|------------------------------|

  Asus2                         Bsus2                              X2
E|-------0------0------0------|--------------0---------------|
B|----------0------0------0---|-------4---------4---4--------|
G|-----2------2------2------2-|-----4----4--------4----4-----|
D|---2------------------------|---4--------4-------------4---|
A|-0--------------------------|-2----------------------------|
E|----------------------------|------------------------------|


And then the last part of chorus:

E|--------------0---------------|-------------0-----------------|
B|-------0---------2-----2------|------2------------------------|
G|-----2----2--------2-----2----|----2---2----------------------|
D|---2--------2--------2-----2--|--2-------2--------------------|
A|-0---------------------------0|0-----------0------------------|
E|------------------------------|-------------------------------|

This goes on throughout the song..
In the end he sings "cradled in love" many times...For that play:

 Asus2                         E
E|-------0------0------0------|------------------------------|
B|----------0------0------0---|-------5------5------5--------|
G|-----2------2------2------2-|-----4----4------4------4-----|
D|---2------------------------|---6--------6------6------6---|
A|-0--------------------------|-7----------------------------|
E|----------------------------|------------------------------|


Please rate..
comments
print report bad tab
3 comments total.
0 reply
rohandvora wrote on September 6 2013, 12:40 am

The chord Cm is not actually Cm. I'm not sure of the name of the chord, so lets call it Cm*.


E Cm*
E|----------------------------|--------------4----------------|
B|-------5-----------5p4------|-------5---------5-----5-------|
G|-----4-----------4----4-----|-----4----6--------4-----4-----| X2
D|---6-----------6--------6---|---6--------6--------6-----6---|
A|-7-----------7------------7-|-4---------------------------4-|
E|----------------------------|-------------------------------|

0 reply
Heart Strings wrote on November 17 2013, 06:33 am

The chord you've shown is Cm7 chord.

0 reply
estepper1 wrote on September 15 2013, 12:34 pm

rohandvora is right. its just called a Cm7

I want to post or [tab]
guest
You may want to rate the tab now too:
select rating
Please do not post tabs as comments. Select "correction" instead!