Oops, an error
Loading. Please wait.

Cradled In Love Chords

version 3
version 3

Whole song

Interactive

7,620 views 19 this week
no commentswrite comment
1 2 3 4 5
please rate
add to favorites
launch autoscroll
font size
0
reset
transpose
0
reset
simplify chords
display chords
guitar tuner
Tab Pro tools
  • play this tab
  • loop segment
  • change instrument
  • show fretboard
  • metronome
×
Best way to learn
"Cradled In Love"
Autoscroll
slow
fast
+/-
esc
set tempo
stop
Contributor
-------------------------------------------------------------------------------
                             CRADLED IN LOVE - POETS OF THE FALL
-------------------------------------------------------------------------------
Tabbed by: Leevi Halonen

Email: leevi.halonen@gmail.com (for comments, corrections and stuff)

Tuning:standard (EADGBe)


First some chords you'll need:

   E           C#m    Badd4  B      Aadd9  A(sus2)

---4-----------4------0------2------0------0---|
---5-----------5------0------4------0------0---|
---4-----------6------8------4------6------2---|
---6-----------6------9------4------7------2---|
---7-----------4------9------2------7------0---|
---X-(or-0-)---X------7------X------5------X---|


And the picking pattern for intro and verse:
(Olli plays some gimmicks here and there during the song but this is the main 
structure)

E                                 C#m
-------------------------------------------------4--------------------|
---------5--------5--4------4-------------5--------5-----5------------|
-------4--------4------4----------------4---4--------4-----4----------|
-----6--------6----------6------------6-------6--------6-----6--------|
---7--------7-----------------------4---------------------------------|
----------------------------------------------------------------------|

B                                     A(sus2)
-----------------------------------------------------------------------|
---------4-------5--------4-----------------0-------2--------0---------|
-------4---4-------4--------4------------2----2-------2--------2-------|
-----4-------4-------4--------4--------2--------2-------2--------2-----|
---2--------------------2------------0---------------------0-----------|
-----------------------------------------------------------------------|


Intro:

| E | C#m | (picking)

Verse:

| E | C#m | B | Asus2 | B | A(sus2) | Asus2 | (picking) x2

Chorus:

| E | C#m | Aadd9 | Badd4 |
| E | C#m | Aadd9 | Badd4 | Aadd9 | Aadd9 Badd4 |
(there is some arpeggio here but I prefer strumming. You could play the basic E: 
022100 here for nicer sound)


VERSE I

E                                 C#m
    You had the blue note sapphire eyes, to back up all those gazes

H                                   Asus2
    To pierce my guard and to take my soul off to faraway places

H                       Asus2
    Told me I'll never be alone, cos you're right there
 

E                              C#m                        B
    We took a gamble with this love, like sailing to the storm

                               Asus2                               B
With the waves rushing over to take us, we were battling against the tide

                             Asus2
You were my beacon of salvation, I was your starlight


CHORUS

E                        C#m                  Aadd9
   So don't cry for your love, cry tears of joy

           Badd4            E
Cos you're alive cradled in love

                   C#m                  Aadd9
Don't cry for your love, cry tears of joy

           Badd4            Aadd9    Aadd9 Badd4
Cos you're alive cradled in love


VERSE II

E                                 C#m
    I kept the love you gave me alive, and now I carry it with me

B                                            Asus2
    I know it's just a tear drop from mother earth, but in it I can hear a
         B                              Asus2
dolphin sing / Telling me I'll never be alone, I know you're right there


E                                  C#m                               B
    So with the fire still burning bright, I wanna gaze into your light

                           Asus2                                B
If I could see my fortune there, you know how flames can hypnotize

                                 Asus2
Do I even dare to speak out your name for fear it sounds like, like a lover


CHORUS (repeat and fade out)

CHORUS

E                        C#m                  Aadd9
   So don't cry for your love, cry tears of joy

           Badd4            E
Cos you're alive cradled in love

                   C#m                  Aadd9
Don't cry for your love, cry tears of joy

           Badd4            Aadd9    Aadd9 Badd4
Cos you're alive cradled in love
comments
We did not receive enough feedback on this tab! Please rate:
print report bad tab
1 2 3 4 5
I want to post or [tab]
guest
You may want to rate the tab now too:
select rating
Please do not post tabs as comments. Select "correction" instead!