Oops, an error
Loading. Please wait.

Dont Mess With Me Tab

version 1
version 1

Whole song

Interactive

3,211 views 1 this week
1 commentread comment
1 2 3 4 5
please rate
add to favorites
launch autoscroll
font size
0
reset
how to read this tab
guitar tuner
Autoscroll
slow
fast
+/-
esc
set tempo
stop
Help us to improve Ultimate-Guitar.com Take our survey!
×
Author
Difficulty
advanced
-----------------------------------------------------------------
DON'T MESS WITH ME - Poets of the Fall
-----------------------------------------------------------------
Tabbed by: Fabba
Email: andreoszwald@hotmail.com

Tuning: Standard (EADGBe)

INTRO:

Guitar 1, distorted
e|---------------------------------------------------------------|
B|---------------------------------------------------------------|
G|-9-9-99-7-7777777-5-5-55-2-2222222-----------------------------|
D|-9-9-99-7-7777777-5-5-55-2-2222222-----------------------------|
A|-7-7-77-5-5555555-3-3-33-0-0000000-----------------------------|
E|---------------------------------------------------------------|
 |Guitar 2, clean                                                |
e|---------------------------------------------------------------|
B|---------------------------------------------------------------|
G|---------------------------------------------------------------|
D|---------------------------------------------------------------|
A|---------------------------030232------------------------------|
E|---------------------------------30~~~-------------------------|
 |Guitar 3, distorted, Wah-effect (?)                            |
e|---------------------------------------------------------------|
B|---------------------------------------------------------------|
G|---------------------------------------------------------------|
D|---------------------------------------------------------------|
A|---------------------------------------------------------------|
E|---------------------------------------------------------------|


e|---------------------------------------------------------------|
B|---------------------------------------------------------------|
G|-9-9-99-7-7777777-5-5-55-2-2222222-----------------------------|
D|-9-9-99-7-7777777-5-5-55-2-2222222-----------------------------|
A|-7-7-77-5-5555555-3-3-33-0-0000000-----------------------------|
E|---------------------------------------------------------------|
 |                                                               |
e|---------------------------------------------------------------|
B|---------------------------------------------------------------|
G|---------------------------------------------------------------|
D|---------------------------------------------------------------|
A|---------------------------030232------------------------------|
E|---------------------------------30~~~-------------------------|
 |                                                               |
e|---------------------------------------------------------------|
B|---------------------------------------------------------------|
G|-9~~~~~~7~~~~~~~~~5~~~~~~2~~~~~~/\-----------------------------|
D|---------------------------------------------------------------|
A|---------------------------------------------------------------|
E|---------------------------------------------------------------|

Guitar 1:
e|-------------------------------------------------------------------------|
B|-------------------------------------------------------------------------|
G|----------7-55\----------55-77-88-9\----------7-55\----------55-77-88-99-|
D|-22-/7-55-7-55\--22-/7-5-55-77-88-9\-22-/7-55-7-55\--22-/7-5-55-77-88-99-|
A|-22-/7-55-5-33\--22-/7-5-33-55-66-7\-22-/7-55-5-33\--22-/7-5-33-55-66-77-|
E|-00-/5-33--------00-/5-3-------------00-/5-33--------00-/5-3-------------|

VERSE:

Guitar 2:
e|----------------------------------------------------------------|
B|----------------------------------------------------------------|
G|---0----0--0--0---0----0--0-------0----0--0--0---0----0--0------|
D|--9--9-0--0--0-0-5--5-0--0--0-7--9--9-0--0--0-0-5--5-0--0--0-7--|
A|-7--7-5--5--5---3--3-2--2--3-5--7--7-5--5--5---3--3-2--2--3-5---|
E|----------------------------------------------------------------|

e|----------------------------------------------------------------|
B|----------------------------------------------------------------|
G|---0----0--0--0---0----0--0-------0----0--0--0---0--------------|
D|--9--9-0--0--0-0-5--5-0--0--0-7--9--9-0--0--0-0-5--5------------|
A|-7--7-5--5--5---3--3-2--2--3-5--7--7-5--5--5---3--3-2~~~--------|
E|----------------------------------------------------------------|

CHORUS:

Guitar 1, distorted
e|---------------------------------------------------------------|
B|---------------------------------------------------------------|
G|-9-9-99-7-7777777-5-5-55-2-2222222-----------------------------|  Play 
D|-9-9-99-7-7777777-5-5-55-2-2222222-----------------------------|
A|-7-7-77-5-5555555-3-3-33-0-0000000-----------------------------|
E|---------------------------------------------------------------|
 |Guitar 2, clean                                                |
e|---------------------------------------------------------------|  This 
B|---------------------------------------------------------------|
G|---------------------------------------------------------------|
D|---------------------------------------------------------------| 
A|---------------------------030232------------------------------|  Riff
E|---------------------------------30~~~-------------------------|
 |Guitar 3, distorted, Wah-effect (?)                            |
e|---------------------------------------------------------------| TWICE!
B|---------------------------------------------------------------|
G|---------------------------------------------------------------|
D|---------------------------------------------------------------|
A|---------------------------------------------------------------|
E|---------------------------------------------------------------|


e|---------------------------------------------------------------|
B|---------------------------------------------------------------|
G|-9-9-99-7-7777777-5-5-55-2-2222222-----------------------------|  Play
D|-9-9-99-7-7777777-5-5-55-2-2222222-----------------------------|
A|-7-7-77-5-5555555-3-3-33-0-0000000-----------------------------|
E|---------------------------------------------------------------|
 |                                                               |  This
e|---------------------------------------------------------------|
B|---------------------------------------------------------------|
G|---------------------------------------------------------------|
D|---------------------------------------------------------------|  Riff
A|---------------------------030232------------------------------|
E|---------------------------------30~~~-------------------------|
 |                                                               |
e|---------------------------------------------------------------|  Twice
B|---------------------------------------------------------------|
G|-------------------10-910----10--9109--------------------------|
D|-------------------------12-12-12----10------------------------|  Too!
A|---------------------------------------------------------------|
E|---------------------------------------------------------------|


Guitar 1:
e|-------------------------------------------------------------------------|
B|-------------------------------------------------------------------------|
G|----------7-55\----------55-77-88-9\----------7-55\----------55-77-88-99-|
D|-22-/7-55-7-55\--22-/7-5-55-77-88-9\-22-/7-55-7-55\--22-/7-5-55-77-88-99-|
A|-22-/7-55-5-33\--22-/7-5-33-55-66-7\-22-/7-55-5-33\--22-/7-5-33-55-66-77-|
E|-00-/5-33--------00-/5-3-------------00-/5-33--------00-/5-3-------------|

 - play VERSE another time

 - play CHORUS another time

BRIDGE:

Guitar 3, distorted, Wah effect (?)
e|---------------------------------------------------------------|
B|---------------------------------------------------------------|
G|-9~~~~~~~~\7~~~~~~~~~\5~~~~~~~~\2~~~~~~~ BREAK! ---------------|
D|---------------------------------------------------------------|
A|---------------------------------------------------------------|
E|---------------------------------------------------------------|
 |Guitar 4, distorted, Wah effect (?)                            |
e|---------------------------------------------------------------|
B|---------------------------------------------------------------|
G|-9~~~~~~~~/11~~~~~~~~/12~~~~~~~/14~~~~~~ BREAK! ---------------|
D|---------------------------------------------------------------|
A|---------------------------------------------------------------|
E|---------------------------------------------------------------|

       . ..  ..    . ..  ..    . ..  ..    . ..  ..
e|---------------------------------------------------------------|
B|---------------------------------------------------------------|
G|---------------------------------------------------------------|  Play
D|-2-2-22222-222-2-22222-222-2-22222-222-2-22222-22--------------|
A|-2-2-22222-222-2-22222-222-2-22222-222-2-22222-22--------------|
E|-0-0-00000-000-0-00000-000-0-00000-000-0-00000-00--------------|
 |                                                               |  This
e|---------------------------------------------------------------|
B|---------------------------------------------------------------|
G|-9~~~~~~~~~~\7~~~~~~~~~~\5~~~~~~~~~~\2~~~~~~~------------------|
D|---------------------------------------------------------------|  Riff
A|---------------------------------------------------------------|
E|---------------------------------------------------------------|
 |                                                               |  FOUR
e|---------------------------------------------------------------|
B|---------------------------------------------------------------|
G|-9~~~~~~~~~~/11~~~~~~~~~/12~~~~~~~~~/14~~~~~~------------------| 
D|---------------------------------------------------------------|  times!
A|---------------------------------------------------------------|
E|---------------------------------------------------------------|

 - then play:

Guitar 1:
e|-------------------------------------------------------------------------|
B|-------------------------------------------------------------------------|
G|----------7-55\----------55-77-88-9\----------7-55\----------55-77-88-99-|
D|-22-/7-55-7-55\--22-/7-5-55-77-88-9\-22-/7-55-7-55\--22-/7-5-55-77-88-99-|
A|-22-/7-55-5-33\--22-/7-5-33-55-66-7\-22-/7-55-5-33\--22-/7-5-33-55-66-77-|
E|-00-/5-33--------00-/5-3-------------00-/5-33--------00-/5-3-------------|

(E|-0/12/0-|)

 - play CHORUS another time

Fade out or play:

Guitar 1:
e|--------------------------------------------------------------------------|
B|--------------------------------------------------------------------------|
G|----------7-55\----------55-77-88-9\----------7-55\---------55-77-88-99---|
D|-22-/7-55-7-55\--22-/7-5-55-77-88-9\-22-/7-55-7-55\-22-/7-5-55-77-88-99-2~|
A|-22-/7-55-5-33\--22-/7-5-33-55-66-7\-22-/7-55-5-33\-22-/7-5-33-55-66-77-2~|
E|-00-/5-33--------00-/5-3-------------00-/5-33-------00-/5-3-------------0~|


| .  palm mute
| /  slide up
| \  slide down
| h  hammer-on
| p  pull-off
| ~  vibrato
| +  harmonic
| x  Mute note
Suggest correction
Give kudos to tab author, rate the tab!
1 2 3 4 5
comments
print report bad tab
1 comment total.
0 reply
henkka_potku 142 wrote on April 15 2007, 07:14 am

excellent tab.

guest
You may want to rate the tab now too:
select rating
Please do not post tabs as comments. Select "correction" instead!