Oops, an error
Loading. Please wait.

Drama For Life tab

31 views 1 this week
no commentswrite comment
1 2 3 4 5
3 more votes to show rating
add to favorites
×
Save as Personal and add changes to this tab that will be seen only by you. Learn more ›
×
You can save this tab as Personal to edit and correct it or add notes. All changes will be seen only by you. Learn more »
launch autoscroll
font size
0
reset
how to read this tab
guitar tuner
edit
Autoscroll
slow
fast
+/-
esc
set tempo
stop
About this tab version
Drama For Life tab by Poets of the Fall tabbed by Erin here you go. Was this info helpful? Yes No
DRAMA FOR LIFE - POETS OF THE FALL
CLEARVIEW

Hi this is the first thing I tabbed myself, yknow its a good song so I kinda listened to it 
and played some stuff by ear. I tabbed this just so I dont forget everything, and I noticed there were 
no tabs of the song yet so I was like yeah why not post it. If you dont like this tab, 
im sorry its not 100% correct -its easy to play tho-.
and yeah im kinda lazy :) so... 
(But ey Cor If you read this, yeah I tabbed the song you played while we were drawing with Coll at VV 
and I miss you (so much)) gosh so desperate rip

[Verse1] 
'I've got this madman in my mind...'

e|-------------------------------------------|
B|-------------------------------------------|
G|--9-9------7-7------6-6------5-5-x-4--4--4-|
D|--9-9------7-7------7-7------5-5-x-4--4--4-|
A|--7-7------5-5------4-4------3-3-x-2--2--2-|
E|-------------------------------------------|

e|--------------------------------------------|
B|--------------------------------------------|
G|--9-9------7-7------6-6---------------4/7h9-|
D|--9-9------7-7------7-7------5h7p5--5-------|
A|--7-7------5-5------4-4-----------7---------|
E|--------------------------------------------|

e|-------------------------------------------|
B|-------------------------------------------|
G|--9-9------7-7------6-6------5-5-x-4--4--4-|
D|--9-9------7-7------7-7------5-5-x-4--4--4-|
A|--7-7------5-5------4-4------3-3-x-2--2--2-|
E|-------------------------------------------|

e|-----------------------------3p0-5p0-7p0-12p0-10p0-7p0-5p0-7p0-|
B|---------------------------------------------------------------|
G|--9-9------7-7------6-6----------------------------------------|
D|--9-9------7-7------7-7----------------------------------------|
A|--7-7------5-5------4-4----------------------------------------|
E|---------------------------------------------------------------|
 
[Chorus] 
'Perfect, near fatal headlong dive...'
idk what I did here there was like singing in the background and this is a lead part 
so I kinda did some high powerchords that would match idk 
(the rythem is nothing special either, just some chords, but maybe i'll write em down as well later, 
but I dont think its relevant)

e|-----------------------------------------------------------------------------------------|
B|-----------------------------------------------------------------------------------------|
G|-9-9-9-9-9-9-9-9-12-12-12-12-12-12-12-12-11-11-11-11-11-11-11-11-10-10-10-10-10-10-10-10-| (x4)
D|-9-9-9-9-9-9-9-9-12-12-12-12-12-12-12-12-11-11-11-11-11-11-11-11-10-10-10-10-10-10-10-10-|
A|-7-7-7-7-7-7-7-7-10-10-10-10-10-10-10-10-9--9--9--9--9--9--9--9--12-12-12-12-12-12-12-12-|
E|-----------------------------------------------------------------------------------------|


e|-----------------------------------------------------------------------------------------|
B|-----------------------------------------------------------------------------------------|
G|-9-9-9-9-9-9-9-9-11-11-11-11-11-11-11-11-12-12-12-12-12-12-12-12-10-10-10-10-10-10-10-10-| (x2)
D|-9-9-9-9-9-9-9-9-11-11-11-11-11-11-11-11-12-12-12-12-12-12-12-12-10-10-10-10-10-10-10-10-|
A|-7-7-7-7-7-7-7-7-9--9--9--9--9--9--9--9--10-10-10-10-10-10-10-10-12-12-12-12-12-12-12-12-|
E|-----------------------------------------------------------------------------------------|

[After-chorus]             
                               x x x   x
e|-----------------------------------------------------|
B|-----------------------------------------------------|
G|--9-9------7-7------6-6------------------------------|
D|--9-9------7-7------7-7------------------------------|
A|--7-7------5-5------4-4------------------------------|
E|-----------------------------0-0-0---0---0----5----3-|

[Verse 2] 'He tears a stampede through my head...' 
e|-------------------------------------------|
B|-------------------------------------------|
G|--9-9------7-7------6-6------5-5-x-4--4--4-|
D|--9-9------7-7------7-7------5-5-x-4--4--4-|
A|--7-7------5-5------4-4------3-3-x-2--2--2-|
E|-------------------------------------------|

e|--------------------------------------------|
B|--------------------------------------------|
G|--9-9------7-7------6-6---------------4/7h9-|
D|--9-9------7-7------7-7------5h7p5--5-------|
A|--7-7------5-5------4-4-----------7---------|
E|--------------------------------------------|

e|----3p0-5p0-7p0-12p0-10p0-7p0-5p0-7p0-3p0-5p0-7p0-12p0-10p0-7p0-5p0-7p0-
B|------------------------------------------------------------------------
G|---------------------------------–--------–-----------------------------
D|---------------------------------–--------–-----------------------------
A|---------------------------------–--------–-----------------------------
E|---------------------------------–--------–-----------------------------

e--3p0-5p0-7p0-12p0-10p0-7p0-5p0-7p0-3p0-5p0-7p0-12p0-10p0-7p0-5p0-7p0-|     
B----------------------------------------------------------------------|
G----------------------------------------------------------------------|      (x2)
D----------------------------------------------------------------------|
A---------------------------------–--------–---------------------------|
E------------------------------------------–--------–------------------|

[Chorus]

[Bridge] 'If all the isms and doctrines of life were...' (spoken)

tap that shit :)
    t        t        t        t        t        t        t        t
e|---------------------------------------------------------------------------
B|--16-12p10-16-12p10-16-12p10-16-12p10-16-12p10-16-12p10-16-12p10-16-12p10--
G|---------------------------------------------------------------------------
D|---------------------------------------------------------------------------
A|---------------------------------------------------------------------------
E|---------------------------------------------------------------------------

    t        t        t        t        t        t        t        t
e---------------------------------------------------------------------------|
B---17-12p10-17-12p10-17-12p10-17-12p10-17-12p10-17-12p10-17-12p10-17-12p10-|
G---------------------------------------------------------------------------| (x?) just a few times 
D---------------------------------------------------------------------------|         -Im lazy-
A---------------------------------------------------------------------------|
E---------------------------------------------------------------------------|

    t        t        t        t        t        t        t        t
e|---------------------------------------------------------------------------
B|--16-12p10-16-12p10-16-12p10-16-12p10-16-12p10-16-12p10-16-12p10-16-12p10--
G|---------------------------------------------------------------------------
D|---------------------------------------------------------------------------
A|---------------------------------------------------------------------------
E|---------------------------------------------------------------------------

    t        t        t        t     half bent(same note as 18) 
e------------------------------------17b17~---------------------------------|
B---17-12p10-17-12p10-17-12p10-17-------------------------------------------|
G---------------------------------------------------------------------------| 
D---------------------------------------------------------------------------|
A---------------------------------------------------------------------------|
E---------------------------------------------------------------------------|

e|----------------------------------------|
B|----------------------------------------|
G|--(9)--------7--------6--------5--------|
D|--(9)--------7--------7--------5--------|
A|--(7)--------5--------4--------3--------|
E|----------------------------------------|

e|--------------------------------------|
B|--------------------------------------|
G|--9--------7--------6-----------------|
D|--9--------7--------7-----------------|
A|--7--------5--------4-----------------|
E|--------------------------------------|

[Chorus] 
and just end in this chord I guess
e|---------|
B|---------|
G|----13---|
D|----14---|
A|----11---|
E|---------|

 
************************************

| x    Dead note
| h    Hammer-on
| /    Slide up
| p    Pull-off
| b    Bend
| ~    Vibrato
| (n)  Ghost note
 

************************************

            
            
Suggest correction
Creating personal tab
Creating personal tab
You can edit any tab online and save it as your Personal.

You can edit, replace or remove any tab part or add personal notes – all changes will be seen only by you.

Personal tabs can be accessed anytime from any device, even offline.
Learn more »
Give kudos to tab author, rate the tab!
1 2 3 4 5
comments
print report bad tab
guest
You may want to rate the tab now too:
select rating
Wanna post a correction for this tab? Suggest correction