Oops, an error
Loading. Please wait.

Fire Tab

version 1
version 1

Solo

Whole song

2,019 views 1 this week
no commentswrite comment
1 2 3 4 5
x 3
add to favorites
launch autoscroll
font size
0
reset
how to read this tab
guitar tuner
Autoscroll
slow
fast
+/-
esc
set tempo
stop
Help us to improve Ultimate-Guitar.com Take our survey!
×
Author
Difficulty
advanced
-----------------------------------------------------------------
FIRE SOLO - Poets of the Fall
-----------------------------------------------------------------
Tabbed by: Fabba
Email: andre.oszwald@gmx.at

Tuning: Standard (EADGBE)

This was one bit of hard work. Enjoy! I think it's rather accurate, but if you can offer 
help or corrections, please mail me.


      W                      E.    E.   H           E
E||----------------------|--------15--------------------|
B||--15b~----------------|--15b--------15b~---------Lb--|
G||----------------------|------------------------------|
D||----------------------|------------------------------|
A||----------------------|------------------------------|
E||----------------------|------------------------------|


    Q       Q       S   E.     Q
-------------------------------------|
--/15\----/12\-----------------------|
-------------------14h-16\---/12\----|
-------------------------------------|
-------------------------------------|
-------------------------------------|


                              |-6-| |--6-|
   S   S S  S S  S   E        S S S S S  S
-------------------------------------------|
-------------------------------------------|
-------------------------------------------|
--12h-14---14---12h-14~--------------------|
------------------------------------7-9-10-|
-------------------------------------------|


  |--6-| |--6-| |--6-| |-6-| |--6-| |--6-|  |--6-|  |---6--|
  S  S S S S  S S S  S S S S S  S S S  S S  S  S S  S  S   S
-------------------------------------------------8-10-12s-14-|
-----------------------------------------8-10-12-------------|
-----------------------7----------7-9-11---------------------|
--7-------------7-9-10---9-7-9-10----------------------------|
----10-9-7-9-10----------------------------------------------|
-------------------------------------------------------------|


   T               T              T               T              T
   T   T   T   T   T   T   T   T  T   T   T   T   T   T   T   T  T   T   T   T
--19p-14h-15h-17h-19p-17p-15p-14------------------------------------------------|
---------------------------------17p-12h-13h-15h-17p-15p-13p-12-----------------|
----------------------------------------------------------------16p-11h-12h-14h-|
--------------------------------------------------------------------------------|
--------------------------------------------------------------------------------|
--------------------------------------------------------------------------------|


                                      3
   E.    E.    Q          E    E      H.       E   S   S   Q     S   E.
--17b---17b---17~--------17p--15--|--14b---------------------------------|
----------------------------------|-----------15-------------------------|
----------------------------------|---------------14s-12h-14----14p-12---|
----------------------------------|--------------------------------------|
----------------------------------|--------------------------------------|
----------------------------------|--------------------------------------|


   H
--14b----------------||
---------------------||
---------------------||
---------------------||
---------------------||
---------------------||


Duration Legend
---------------
W - whole
H - half
Q - quarter
E - 8th
S - 16th
T - 32nd
X - 64th
. - note dotted
|-n-|  - n-tuplets


Tablature Legend
----------------
L - tied note
x - dead note
g - grace note
(n) - ghost note
> - accentuded note
NH - natural harmonic
AH - artificial harmonic
TH - tapped harmonic
SH - semi harmonic
PH - pitch harmonic
h - hammer on
p - pull off
b - bend
br - bendRelease
pb - preBend
pbr - preBendRelease
brb - bendReleaseBend
\n/ - tremolo bar dip
\n - tremolo bar dive
-/n - tremolo bar Release up
/n\ - tremolo bar inverted dip
/n - tremolo bar return
-\n - tremolo bar Release down
S - shift slide
s - legato slide
/ -  slide into from below or out of upwards
\ -  slide into from above or out of downwards
~ - vibrato
W - wide vibrato
tr - trill
TP - tremolo picking
T - tapping
S - slap
P - pop
< - fade in
^ - brush up
v - brush down
Suggest correction
Give kudos to tab author, rate the tab!
1 2 3 4 5
comments
print report bad tab
guest
You may want to rate the tab now too:
select rating
Wanna post a correction for this tab? Suggest correction