Oops, an error
Loading. Please wait.

Fragile Chords

12,343 views 6 this week
7 commentsread comments
1 2 3 4 5
accurate
x 4
add to favorites
launch autoscroll
font size
0
reset
transpose
0
reset
simplify chords
display chords
guitar tuner
Autoscroll
slow
fast
+/-
esc
set tempo
stop
Help us to improve Ultimate-Guitar.com Take our survey!
×
Author
Difficulty
intermediate
This is based on one guitar chord adaption by Pestage from POTF forums.
I revamped it and fixed what I think was a bit out of place and upgraded it with 
for us hardcore ballad freaks ^^

For simple chords with a pick play Bsus4 instead of Esus4 in Verses.


What you should know:
|---------------------
| E x22100
| Asus2 x02200
| Esus4 022200
| Bsus4 x24400
| Dsus2 xx0230
| E6 x46600
| E7sus4 020230
| F#7add11 244300


___________________________________________________________________________
Verse 1:
   E                    Asus2                Esus4
e|--------------------|--------------------|--------------------|
B|--------0-------0---|--------0-------0---|--------0-------0---|
G|-----1--------------|-----2--------------|-----2--------------|
D|----2--2-------2-2--|----2--2-------2-2--|----2--2-------2-2--|
A|-2----------2-------|-0----------0-------|-2----------2-------|
E|--------------------|--------------------|--------------------|

PRE-CHORUS:
   Dsus2                E                    Asus2
e|--------0-------0---|--------0-------0---|--------0-------0---|
B|-----3--------------|-----0--------------|-----0--------------|
G|----2--2-------2-2--|----1--1-------1-1--|----1--1-------1-1--|
D|-0----------0-------|-2----------2-------|-2----------2-------|
A|--------------------|--------------------|--------------------|
E|--------------------|--------------------|--------------------|

___________________________________________________________________________


VERSE 1: (strumming)
--------------------
E
you've been biting bullets all these years i know
E                               Asus2
there beside yourself choking on tears
Esus4
and you aced avoiding possibility
Asus2
when you placed your beds on bittersweet


PRE-CHORUS 1: (strumming)
-------------------------
Dsus2
now don't you worry
E
no need to be sorry
Asus2
time to step lightly
Bsus4-E6 (chords slide)


CHORUS 1: (chords)
------------------
E7sus4
'Cause the love you used to feel is still there
Asus2
inside
E6
it may be a faded photograph but I know you care, so don't hide
E7sus4
if you're scared i'm here beside you
Asus2
if you get lost i'm here to guide you
E6
And I'll give you peace when peace is fragile.
Dsus2
Love is all the good in you,
Asus2                      E(Strumming as in Verse 1)
Love is peace when peace is fragile.


VERSE 2: (strumming)
--------------------
E
You've been going out of way to agree
E                                                       Asus2
Like you've been rubbing yourself all wrong just to be somebody else's genie
Esus4
Catering to your disasters every need
Asus2
Waiting to finally be set free

PRE-CHORUS 2: (strumming)
Dsus2
now don't you worry
E
no need to be sorry
Asus2
time to step lightly
Bsus4-E6 (chords slide)


CHORUS 2: (chords)
------------------
E7sus4
'Cause the love you used to feel is still there
Asus2
inside
E6
it may be a faded photograph but I know you care, so don't hide
E7sus4
if you're scared i'm here beside you
Asus2
if you get lost i'm here to guide you
E6
And I'll give you peace when peace is fragile.
Dsus2
Love is all the good in you,
Asus2              Bsus4     E
Love is peace when peace is fragile.


INSTRUMENTAL:
-------------
(Play 2 times)
E Asus2
eh eh eh
E6 Bsus4
oh oh oh oh
F#7add11


CHORUS 3: (chords)
------------------
E7sus4
'Cause the love you used to feel is still there
Asus2
inside
E6
it may be a faded photograph but I know you care, so don't hide
E7sus4
if you're scared i'm here beside you
Asus2
if you get lost i'm here to guide you
E6
And I'll give you peace when peace is fragile.
Dsus2
Love is all the good in you,
Asus2              Dsus2    Asus2                  E (Strumming to the end)
Love is peace when peace is fragile eeee ou ah ah ah an ah.
Suggest correction
comments
print report bad tab
7 comments total. Showing first comments.
0 reply
henkka_potku 142 wrote on June 5 2008, 10:53 am

When playing E chord you dont mute the low e string, but you mute B and high E strings.

0 reply
G-FORCE 69 10 wrote on June 8 2008, 08:32 am

i think the chords are right but the E isnt played were you say it is this song has 2 guitars and guitar behind does play the E chord in those frets but with a diferent rithim just watch their acoustic gig i dont know the right tab too but if you it it would be a help of improving this tab

0 reply
G-FORCE 69 10 wrote on June 8 2008, 01:08 pm

i've figured out that the chords u have there are the chords from the 2nd guitar but they are playd like this:

E Asus2 Esus4
e|----0---------------|--------0-----------|------0-------------|
B|----0---------------|--------0-----------|------0-------------|
G|----1---------------|--------2-----------|------2-------------|
D|--------------------|-----2--------------|--------------------|
A|--2-----------------|---0----------------|----2---------------|
E|-0------------------|--------------------|--0-----------------|

PRE-CHORUS:
Dsus2 E Asus2
e|------0-----|-----0----------|-----------0--------------------|
B|------2-----|-----0----------|-----------0--------------------|
G|------3-----|-----1----------|-----------2--------------------|
D|----0-------|---2------------|--------2-----------------------|
A|--0---------|--2-------------|------0-------------------------|
E|------------|----------------|--------------------------------|

guest
You may want to rate the tab now too:
select rating
Wanna post a correction for this tab? Suggest correction