Oops, an error
Loading. Please wait.

Gravity Tab

version 1
version 1

Whole song

Interactive

5,081 views 3 this week
no commentswrite comment
1 2 3 4 5
x 5
add to favorites
launch autoscroll
font size
0
reset
how to read this tab
guitar tuner
Autoscroll
slow
fast
+/-
esc
set tempo
stop
Help us to improve Ultimate-Guitar.com Take our survey!
×
Author
Difficulty
Tuning
advanced
D A D G B E
-----------------------------------------------------------------
GRAVITY - Poets of the Fall
-----------------------------------------------------------------
Tabbed by: Fabba
Email: fabba@hotmail.com

Tuning: Drop-D

Riff 1: Intro & Verse (listen to the song for the rhythm)

e|-------------------------------------------------------|
B|-------------------------------------------------------|
G|--xx-55-x-55555-xx-------------------                --|
D|--xx-77-x-55555-xx--55--------------- x 8            --|
A|--xx-77-x-77777-xx--55---------------                --|
D|----------88888-----55---------------------------------|

Riff 2: Pre-Chorus

e|-------------------------------------------------------|
B|-------------------------------------------------------|
G|---55-x-5x555-33-x-3x333------------     --------------|
D|---55-x-5x555-33-x-3x333------------ x3  --------------|
A|---33-x-3x333-11-x-1x111------------     --------------|
D|-------------------------------------------------------|

there's something like 
"e|-3-1-3-1-33-1-3-1-3--------------------|"
in the background, but I'm not sure.

Riff 3: Chorus

e|-------------------------------------------------------|
B|-------------------------------------------------------|
G|------5x555-xx------------------5x555-xx---------------|
D|-00-x-5x555-xx-55-x3x333-xx-00-x-3x333-xx-55-x3x333-xx-|
A|-00-x-3x333-xx-55-x3x333-xx-00-x-3x333-xx-55-x3x333-xx-|
D|-00-x----------55-x3x333-xx-00-x----------55-x3x333-xx-|


e|-------------------------------------------------------|
B|-------------------------------------------------------|
G|------5x555-xx------------------5x555-xx---------------|
D|-00-x-5x555-xx-55x5x3x2x---00-x-3x333-xx-5-          --|
A|-00-x-3x333-xx-55x5x3x2x---00-x-3x333-xx-5- let ring --|
D|-00-x----------55x5x3x2x---00-x----------5-          --|

 - play the verse. In the background there is
this (careful, this part is GUESSWORK - I only heard a radio recording.)
e|---------------------------------------------------------------|
B|---------------------------------------------------------------|
G|----14-12-10-14--12-10-12/14-----------------------------------|
D|--------------------------------15-14-12-15--14-12----15/17\15-|
A|--------------------------------------------------15-----------|
D|---------------------------------------------------------------|

 - Play "Prechorus" - there's something in the background, but I
 have no clue what it is.
 - Play Chorus
 - Play this slightly altered version of the verse riff 4 times:

(altered verse riff:)

e|-------------------------------------------------------|
B|-------------------------------------------------------|
G|--xx-55-x-55555-xx-------------------------------------|
D|--xx-77-x-55555-xx--55-33-x3x3x332---------------------|
A|--xx-77-x-77777-xx--55-33-x3x3x332---------------------|
D|----------88888-----55-33-x3x3x332---------------------|

And in the background:

e|---------------------------------------------------------------|
B|----10-9--10-9--10-9--10-9--10-9--10-9--10-9--10-9--10/12------|
G|---------------------------------------------------------------|
D|---------------------------------------------------------------|
A|---------------------------------------------------------------|
D|---------------------------------------------------------------|

Then comes a part without chords, only 3 picked notes, I won't tab
those because you can play them from your ear...

 - play the chorus, this time ending on 

e|---------------------|
B|---------------------|
G|------5x555-xx-------|
D|-00-x-3x333-xx-5--1--|
A|-00-x-3x333-xx-5--1--|
D|-00-x----------5--1--|

- Then play the altered verse Riff another four times. Here comes the solo :-P

e|---------------------------------------------------------------|
B|--13b15~~~~~~~15r13-10-13~~~\-------13------13------13------13-|
G|-------------------------------12h14---12h14---12h14---12h14---|
D|---------------------------------------------------------------|
A|---------------------------------------------------------------|
D|---------------------------------------------------------------|

e|---------------------------------------------------------------|
B|------13-----------------------------------------10-13-13b15~~-|
G|-12h14---14p12/10-12b14~~~~~~-12b14r10-12~-10h12---------------|
D|---------------------------------------------------------------|
A|---------------------------------------------------------------|
D|---------------------------------------------------------------|

e|-12~-----13~-----15~-----17~~~---------------------------------|
B|-15b17~--16b18~--18b20~--20b22~~~------------------------------|
G|---------------------------------------------------------------|
D|---------------------------------------------------------------|
A|---------------------------------------------------------------|
D|---------------------------------------------------------------|


"..like gravity let go, you get up after you fall..."

Suggest correction
comments
print report bad tab
guest
You may want to rate the tab now too:
select rating
Wanna post a correction for this tab? Suggest correction