Oops, an error
Loading. Please wait.

Illusion And Dream Tab

version 1
version 1

Intro

Whole song

Interactive

14,367 views 6 this week
4 commentsread comments
1 2 3 4 5
x 11
add to favorites
launch autoscroll
font size
0
reset
how to read this tab
guitar tuner
×
Best way to learn
"Illusion And Dream"
Autoscroll
slow
fast
+/-
esc
set tempo
stop
E: ------------|-----------------|--------------|-----------------------------|
H: ---0---4--0-|---4-----5-4-----|--------4-----|-----------------------------|
G: -3---3------|-------4-------4-|---4-------4--|---3------4--3---------------|
D: ------------|--6--------------|--4----4------|-4----4--------4-------------|
A: ------------|-----------------|--------------|-----------------------------|
E: ------------|-----------------|--------------|-----------------------------|

I believe that this is right...
Suggest correction
comments
print report bad tab
4 comments total. Showing first comments.
+1 reply
Oasis4U2NV 925 Jul 13, 2006 01:29 AM

Your tab is correct, but I find it easier to play it like this.

E: ------------|---------0-------|--------------|-------------------|
H: ---0---4----|---4-------4-----|--------4-----|---------0---------|
G: -3---3---4--|-------4------4--|----4------4--|---3--------3------|
D: ------------|--6--------------|--4----4------|-4----4--------4---|
A: ------------|-----------------|--------------|-------------------|
E: ------------|-----------------|--------------|-------------------|

0 reply
gust37 30 May 31, 2007 01:00 AM

that's not what the guy plays..you easily can prove this viewing an acoustic at youtube, I uploaded the correct one but magically UG rejected my tab......why??

0 reply
AdVisory 291 May 31, 2007 05:23 AM

i know that's not what the guy plays.. it was easier to play like that when i learned long time ago .. it should be played same way like that but the first "G 3" should be "D 8"

guest
You may want to rate the tab now too:
select rating
Wanna post a correction for this tab? Suggest correction