Oops, an error
Loading. Please wait.

Illusion And Dream Tab

version 1
version 1

Whole song

Interactive

20,301 views 33 this week
2 commentsread comments
1 2 3 4 5
excellent!
x 9
add to favorites
launch autoscroll
font size
0
reset
how to read this tab
guitar tuner
Autoscroll
slow
fast
+/-
esc
set tempo
stop
Help us to improve Ultimate-Guitar.com Take our survey!
×
Author
-------------------------------------------------------------------------
ILLUSION & DREAM – Poets of the Fall
-------------------------------------------------------------------------
Tabbed by: Kengus

There were some mistakes in the existing ones; here's the correct intro
and the correct chorus. Enjoy.

Standard tuning

INTRO (repeated x2)
 (G#m)       (C#m)        (B/F#)     (F#add4)
e|------------------0------------------------------|
B|---0---4------4-----4----------4----------0------|  this is repeated in
G|-3---3---4-----------------4-----4----3-----3----|  the verse as well
D|------------6---6-----6--4---4------4---4-----4--|
A|-------------------------------------------------|
E|-------------------------------------------------|

VERSE1 (pick like in intro)
(G#m)           (C#m)              (B/F#)    (F#add4)          (G#m)
      Look in my eyes I'll make you see, we're drifting aimlessly
          (C#m)           (B/F#)(F#add4)  (G#m) (C#m) (B/F#) (F#add4)
Blind in a world of make believe                         hmmmm

VERSE2 (still picking)
(G#m)          (C#m)                (B/F#)  (F#add4)
      Hear them sing their songs off key, ‘n' nod like they agree
(G#m)          (C#m)         (B/F#)(F#add4)
     Buying the need to be discreet

PRE-CHORUS (strum the chords)
C#m                             Bsus2      Asus2
    I've got no hand in matters worldly, I hardly care at all
C#m                             Bsus2               Asus2
    What's going on fails to concern me, ‘cause I'm locked behind my wall
C#m                           G#m              F#
    But you know what drives me out, out of my mind

CHORUS (still strumming)
E                          F#                 E
   It's whatever makes you see, makes you believe
                      F#                        C#m
And forget about the premonition you need to conceive
                F#                   E
The images they sell are illusion & dream
          F#
In other words dishonesty

INTERLUDE (repeat intro)
  (G#m)       (C#m)        (B/F#)     (F#add4)
e|------------------0------------------------------|
B|---0---4------4-----4----------4----------0------|  
G|-3---3---4-----------------4-----4----3-----3----|
D|------------6---6-----6--4---4------4---4-----4--|
A|-------------------------------------------------|
E|-------------------------------------------------|

VERSE3 (play like before, picking)
If I speak ill, please humour me, won't rant on endlessly
Just thought I'd try to make you see

PRE-CHORUS (play like previous pre-chorus)
It doesn't solve a thing to dress it in a pretty gown
A stone will not need you to guess if you're still going to drown
So you know what drives me out, out of my mind

CHORUS (same as before, goes straight into bridge)
It's whatever makes you see, makes you believe
And forget about the premonition you need to conceive
The images they sell are illusion & dream
          F#           G#m...
In other words dishonesty

BRIDGE
...G#m     C#m       B       F#         G#m             C#m
e|-----------------------------------------------------------------------|
B|---------------4h5-------4---------0--------4-----4---------4h5-----5--|
G|-------4-----6---------4---------3--------4-----4---4-----6-------6---6|
D|-----6-----6---------4---------4--------6-----6---------6-------6------|
A|---6-----4---------2---------4------------------------4----------------|
E|-4-------------------------2----------4--------------------------------|
   B               F#         G#m           C#m               B
e|-----------------------------------------------------------------------|
B|-------4-----4----------------------4-----------4h5---------------4----|
G|-----4-----4---4---------3--------4---4-------6-----6---6-------4------|
D|---4-----4-----------4----------6-------6---6---------6---6---4-----4--|
A|-2-----------------4---4------6-----------4-----------------2----------|
E|-----------------2----------4------------------------------------------|
       F#       F# F#
e|--------------2--2--|
B|--------------2--2--|
G|-4------------3--3--|
D|---4-----4----4--4--|
A|-------4---4--4--4--|
E|-----2--------2--2--|

BRIDGE (first without vocals G#m, C#m, B and F#)
G#m                            C#m
    So can you name your demon;    understand its scheming?
B                                 F#
   I raise my glass and say "here's to you"
G#m                          C#m
    Can you chase your demon;    or will it take your freedom?
B                                 F#
   I raise my class and say "here's to you"

PRE-CHORUS (play like before)
I've got no hand in matters worldly, I hardly care at all
What's going on fails to concern me, ‘cause I'm locked behind my wall
But you know what drives me out, out of my mind

CHORUS (same as before)
It's whatever makes you see, makes you believe
And forget about the premonition you need to conceive
That the images they sell are illusion & dream
In other words dishonesty

CHORUS (same as before)
So whatever makes you see, makes you believe
And forget about the premonition you need to conceive
The images they sell are illusion & dream
In other words dishonesty.

OUTRO (repeat chorus until fade-out)

=========================================================================
Comment, rate, appreciate!
Suggest correction
comments
print report bad tab
2 comments total.
0 reply
Sakuboi 206 wrote on September 8 2009, 12:17 pm

amazing tab!!:DD

0 reply
January85 304 wrote on November 23 2009, 06:13 am

I play the riff like this:


e|-------------------------------------------------|
B|-------4------4---5p4----------4-----------------|
G|---4-----4-----------------4-----4----3---4p3----|
D|-8----------6---6-----6--4---4------4---4-----4--|
A|-------------------------------------------------|
E|-------------------------------------------------|


Makes it sound more... concrete.

guest
You may want to rate the tab now too:
select rating
Please do not post tabs as comments. Select "correction" instead!