Oops, an error
Loading. Please wait.

Locking Up The Sun Tab

version 1
version 1

Whole song

Interactive

8,432 views 6 this week
1 commentread comment
1 2 3 4 5
excellent!
x 5
add to favorites
launch autoscroll
font size
0
reset
how to read this tab
guitar tuner
Autoscroll
slow
fast
+/-
esc
set tempo
stop
Help us to improve Ultimate-Guitar.com Take our survey!
×
Author
-----------------------------------------------------------------------------
                             Locking Up The Sun - Poets of the Fall
-----------------------------------------------------------------------------
Tabbed by: Cereon
Email: paul_buzzz@hotmail.com

Tuning: Standard (eBGDAE)


0:32

Listen to the song for the exact muted strumming, it's something like this
e|---------------------------------------------------------------|
B|---------------------------------------------------------------|
G|---------------------------------------------------------------|
D|--6--66-6-----6-------6---5---6-------6------5-------5---5--5--|
A|--6--66-6-----6---6---6-------6---6---6------5---6---5------5--|
E|--4--44-4-----4-------4-------4-------4------3-------3------3--|
    ..    ...   ....    .       ...     ...    ....    .      .x7

e|---------------------------------------------------------------|
B|---------------------------------------------------------------|
G|----------------------------------------------8----------------|
D|--6-------6---5---6-------6----10---10---10------10------------|
A|--6---6---6-------6---6---6----10---------8-------8--10-8------|
E|--4-------4-------4-------4-----8---------8-------8-------8----|
    ....    .       ...     ...   ....      .       ..

e|---------------------------------------------------------------|
B|---------------------------------------------------------------|
G|---------------------------------------------------------------|
D|--6-------6---5---6----------5-------5---5---5-------5---------|
A|--6---6---6-------6---6------5---6---5-------5---6---5---------|
E|--4-------4-------4----------3-------3-------3-------3---------|
    ....    .       ...        ....    .       ...     ...

e|---------------------------------------------------------------|
B|---------------------------------------------------------------|
G|---------------------------------------------8-----------9b+---|  
D|--6-------6---5---6-------6---10---10---10-------10------------| 
A|--6---6---6-------6---6---6---10---------8--------8---8--------|
E|--4-------4-------4-------4----8---------8--------8------------|
    ....    .       ...     ...  ....      .        ..


0:55

e|---------------------------------------------------------------------|
B|---------------------------------------------------------------------|
G|---------------8----10-------------------6--------------6---8--------|
D|----3----------8-----8----------3--------6-------8------6---8--------| x2
A|----3----------6-----8----------3--------4-------8------4---6--------|
E|----1---------------------------1----------------6-------------------|


1:16

e|--------------------------------------------------------11-13+-13----|
B|--11-13---9-11-------------------11-13-------------------------------|
G|-----------------8-10--------------------9-11------------------------|
D|------------------------8-10--------------------8-10-----------------|
A|---------------------------------------------------------------------|
E|---------------------------------------------------------------------|

e|--11-13--------------------------11-13------------------11-13+-15+~--|
B|----------9-11--------9------------------9-11------------------------|
G|-----------------8-10---10~---------------------8-10-----------------|
D|---------------------------------------------------------------------|
A|---------------------------------------------------------------------|
E|---------------------------------------------------------------------|


1:53

e|---------------------------------------------------------------|
B|---------------------------------------------------------------|
G|---------------------------------------------------------------|
D|--6--66-6-----6-------6---5---6-------6------5-------5---5--5--|
A|--6--66-6-----6---6---6-------6---6---6------5---6---5------5--|
E|--4--44-4-----4-------4-------4-------4------3-------3------3--|
    ..    ...   ....    .       ...     ...    ....    .      .x7

e|---------------------------------------------------------------|
B|---------------------------------------------------------------|
G|----------------------------------------------8----------------|
D|--6-------6---5---6-------6----10---10---10------10------------|
A|--6---6---6-------6---6---6----10---------8-------8--10-8------|
E|--4-------4-------4-------4-----8---------8-------8-------8----|
    ....    .       ...     ...   ....      .       ..

e|---------------------------------------------------------------|
B|---------------------------------------------------------------|
G|---------------------------------------------------------------|
D|--6-------6---5---6----------5-------5---5---5-------5---------|
A|--6---6---6-------6---6------5---6---5-------5---6---5---------|
E|--4-------4-------4----------3-------3-------3-------3---------|
    ....    .       ...        ....    .       ...     ...

e|---------------------------------------------------------------|
B|---------------------------------------------------------------|
G|---------------------------------------------8-----------9b+---|  
D|--6-------6---5---6-------6---10---10---10-------10------------| 
A|--6---6---6-------6---6---6---10---------8--------8---8--------|
E|--4-------4-------4-------4----8---------8--------8------------|
    ....    .       ...     ...  ....      .        ..


2:15

e|---------------------------------------------------------------------|
B|---------------------------------------------------------------------|
G|---------------8----10-------------------6--------------6---8--------|
D|----3----------8-----8----------3--------6-------8------6---8--------| x2
A|----3----------6-----8----------3--------4-------8------4---6--------|
E|----1---------------------------1----------------6-------------------|


2:37

e|--------------------------------------------------------11-13+-13----|
B|--11-13---9-11-------------------11-13-------------------------------|
G|-----------------8-10--------------------9-11------------------------|
D|------------------------8-10--------------------8-10-----------------|
A|---------------------------------------------------------------------|
E|---------------------------------------------------------------------|

e|--11-13--------------------------11-13-------------------------------|
B|----------9-11--------9------------------9-11----------9-8-----------|
G|-----------------8-10---10~----------------------8-10----------------|
D|---------------------------------------------------------------------|
A|---------------------------------------------------------------------|
E|---------------------------------------------------------------------|

2:48

e|-------8-------------------------------------------------------------|
B|-----------------11---------9---------11-----------------------------|
G|--8-10---10-8-10----10-8-10---10-8-10----10--------------------------|
D|---------------------------------------------------------------------| x4
A|---------------------------------------------------------------------|
E|---------------------------------------------------------------------|

e|-------8---------------|
B|-----------------------|
G|--8-10---10-8-10-------|
D|-----------------------|
A|-----------------------|
E|-----------------------|


3:14

e|----------------------------------------------------------------------|
B|----------------------------------------------------------------------|
G|-----------------8----10--------------------6------------6---8--------|
D|---10\3----------8-----8----------3---------6------8-----6---8--------| x2
A|---10\3----------6-----8----------3---------4------8-----4---6--------|
E|---8-\1---------------------------1----------------6------------------|


3:36

e|--------------------------------------------------------11-13+-13-----|
B|--11-13---9-11-------------------11-13--------------------------------|
G|-----------------8-10--------------------9-11-------------------------|
D|------------------------8-10--------------------8-10------------------|
A|----------------------------------------------------------------------|
E|----------------------------------------------------------------------|

e|--11-13--------------------------11-13------------------11-13+-13+-13-|
B|----------9-11--------9------------------9-11-------------------------|
G|-----------------8-10---10~---------------------8-10------------------|
D|----------------------------------------------------------------------|
A|----------------------------------------------------------------------|
E|----------------------------------------------------------------------|


| /  slide up
| \  slide down
| h  hammer-on
| p  pull-off
| b  bend
| ~  vibrato
| +  harmonic
| .  Mute note
=============================================================================
Suggest correction
What's this?
You can suggest a correction to this tab. Community and Mods will review your correction and vote to approve or reject it.
comments
print report bad tab
1 comment total.
0 reply
deathbycontrol 600 wrote on July 2 2010, 02:54 am

Sounds great, good job. 5 stars

guest
You may want to rate the tab now too:
select rating
Please do not post tabs as comments. Select "correction" instead!