Oops, an error
Loading. Please wait.

No End No Beginning Tab

version 1
version 1

Intro

Whole song

3,924 views 1 this week
3 commentsread comments
1 2 3 4 5
accurate
x 3
add to favorites
launch autoscroll
font size
0
reset
how to read this tab
guitar tuner
Tab Pro tools
  • play this tab
  • loop segment
  • change instrument
  • show fretboard
  • metronome
×
Best way to learn
"No End No Beginning"
Autoscroll
slow
fast
+/-
esc
set tempo
stop
Contributor
Difficulty
Capo
novice
2nd fret
Capo on 2

e| ----------0---------0----------0------------0------------0---------0---------0-----------0---|
B| -------0---------0----------0-----0---------0---------0---------0---------0-----0--------0---|
G| ---14--------13--------12-------------------5-----14--------13--------12-----------------5---|
D| -----------------------------------------5--------------------------------------------5------|
A| --------------------------------------3--------------------------------------------0---------|
E| ---------------------------------------------------------------------------------------------|
comments
We did not receive enough feedback on this tab! Please rate:
print report bad tab
1 2 3 4 5
3 comments total.
+1 reply
tato_13 wrote on March 24 2011, 08:03 pm

Just found a mistake xD Play it this way :P


e| ----------0---------0----------0------------0------------0---------0---------0-----------0---|
B| -------0---------0----------0-----0---------0---------0---------0---------0-----0--------0---|
G| ---14--------13--------11-------------------5-----14--------13--------11-----------------5---|
D| -----------------------------------------5--------------------------------------------5------|
A| --------------------------------------3--------------------------------------------0---------|
E| ---------------------------------------------------------------------------------------------|

0 reply
Reza Razor wrote on August 28 2013, 08:01 am

i want the whole song specially with solo part

0 reply
PotFFan wrote on August 21 2015, 08:26 am, edited at 08:31 am

thats pretty good but the last strummed chord in the intro, the b string is on fret 3.

I want to post or [tab]
guest
You may want to rate the tab now too:
select rating
Please do not post tabs as comments. Select "correction" instead!