Oops, an error
Loading. Please wait.

Overboard Tab

version 1
version 1

Intro

Interactive

1,302 views 1 this week
1 commentread comment
1 2 3 4 5
x 3
add to favorites
launch autoscroll
font size
0
reset
how to read this tab
guitar tuner
Autoscroll
slow
fast
+/-
esc
set tempo
stop
Help us to improve Ultimate-Guitar.com Take our survey!
×
Author
Hey. I think this intro goes this way:

e:----2-------4-------6-------4---------00-000-2-2-22-22-4-4-444-2-2-22-22-|
B:--0---0---2---2---4---4---2---2-------00-000-2-2-22-22-4-4-444-2-2-22-22-|
G:-------------------------------------------------------------------------|
D:-------------------------------------------------------------------------|
A:-------------------------------------------------------------------------|
E:-------------------------------------------------------------------------|
Suggest correction
Give kudos to tab author, rate the tab!
1 2 3 4 5
comments
print report bad tab
1 comment total.
0 reply
nausikah 10 Jan 29, 2010 10:12 AM

For the beginning I'd better see:
--2--5--7--5
-0-03-35-53-

guest
You may want to rate the tab now too:
select rating
Wanna post a correction for this tab? Suggest correction