Oops, an error
Loading. Please wait.

Passion Colors Everything Tab

version 1
version 1

Whole song

Interactive

3,648 views 3 this week
3 commentsread comments
1 2 3 4 5
please rate
add to favorites
launch autoscroll
font size
0
reset
how to read this tab
guitar tuner
Autoscroll
slow
fast
+/-
esc
set tempo
stop
Help us to improve Ultimate-Guitar.com Take our survey!
×
Author
-----------------------------------------------------------------------
                PASSION COLORS EVERYTHING - Poets of the Fall
-----------------------------------------------------------------------
Tabbed by: LauriP
Email: vadelmap@gmail.com

Tuning: Normal(eadgbe)

Verse:
e|----0------0--------0--------0---0-----------------------------------|
B|---6-6----6-6------6-6------3---3------------------------------------|
G|--5---5--3---3----5---5----2---2-------------------------------------|
D|-0------0------0-----------------------------------------------------|
A|----------------3--------1-------------------------------------------|
E|---------------------------------------------------------------------|

Pre-chorus: (Chorus/Bridge is the same, but without the stopping)
e|---------------------------------------------------------------------|
B|---------------------------------------------------------------------|
G|---------------------------------------------------------------------|
D|-555--777--555--333--------------------------------------------------|
A|-555--555--333--333--------------------------------------------------|
E|-333--333--333--111--------------------------------------------------|

Enjoy.
Suggest correction
Give kudos to tab author, rate the tab!
1 2 3 4 5
comments
print report bad tab
3 comments total.
+1 reply
G-FORCE 69 10 wrote on April 30 2008, 03:03 pm

you should do like this its an easier and a more efective away:

e|----0------0--------0---------------------------------------------|
B|---6-6----6-6------6-6--------5---5--------------------------|
G|--5---5--3---3----5---5------7---7----------------------------|
D|-0------0------0------------5---5-------------------------------|
A|----------------3--------0--------------------------------------|
E|-----------------------------------------------------------------|

0 reply
LauriP 104 wrote on May 3 2008, 10:26 am

Oh, thanks. I made this tab too quickly anyway as now I noticed that the last part is played differently.

+1 reply
G-FORCE 69 10 wrote on May 18 2008, 03:11 pm

yeah and now i figured out that the last part should be played like:
e|--------0----0------------------------------|
B|------3----3------------------------|
G|----2----2---------------------------|
D|-------------------------------------|
A|--1-------------------------------------|
E|-----------------------------------------------------------------|

guest
You may want to rate the tab now too:
select rating
Please do not post tabs as comments. Select "correction" instead!