Oops, an error
Loading. Please wait.

Rewind Tab

version 1
version 1

Whole song

Interactive

9,391 views 6 this week
3 commentsread comments
1 2 3 4 5
1 last vote to show rating
add to favorites
launch autoscroll
font size
0
reset
how to read this tab
guitar tuner
Autoscroll
slow
fast
+/-
esc
set tempo
stop
Help us to improve Ultimate-Guitar.com Take our survey!
×
Author
-------------------------------------------------------------------------
REWIND – Poets of the Fall
-------------------------------------------------------------------------
Tabbed by: Kengus

This is just a rough sketch of a tab. I have no idea how the song should
be played, but this kinda works. Kinda.

Standard tuning
Capo on second fret!

INTRO (repeat x2)
   Dm   C   G/B  Bb6 C  Dm     C   G/B  Bb6 C
e|--------------------------5----5--3----------| The same pattern is
B|-5h6--5----3----3--5--5h6----5----3-3--3--5--| used in the verses too,
G|------0-0--0-0--0--0---------0------0--0--0--| with only minor variation
D|-7--------------------7----------------------|
A|-5----3----2----1--3--5------3----2-2--1--3--|
E|---------------------------------------------|

VERSE1 (similar to intro)
Dm           C           G/B     Bb6  C
   What do we have but illusions
      Dm        C   G/B    Bb6        C      Dm
Where one man's absolute is another's choice
      C         G/B    Bb6  C
Giving in to confusion
     Dm       C         G/B            Bb6     C
Till love and hate both tempt with the same voice
Dm  C         G/B          Bb6     C     Dm  C
      Won't you take me to a higher ground
        G/B       Bb6         C    Dm
I need to see again the way I'm bound
    C            G/B    Bb6    C  Dm     C            G/B        Bb6
And choose the uneasy redemption, run by fear and the flaws of attraction

CHORUS
   Dm           Dm7/C        Bbadd9       Am11         Dm           Dm7/C
e|-------1------------1--------------------------------------1-----------|
B|-----3---3--------3---3----------3------------3----------3---3--------3|
G|---2-------2----2-------2------5---5--------5---5------2-------2----2--|
D|-0---------------------------3-------3----5-------5--0-----------------|
A|--------------3------------1------------0-------------------------3----|
E|-----------------------------------------------------------------------|
          Gsus4 G  BbM7 C  Dm           Dm7/C        Dm6/B        G7sus4
e|-1-----------------------------1------------1------------1----------1--|
B|---3--------3-3-3--3--1------3---3--------3---3--------3---3--------1--|
G|-----2------5-4-4--2--0----2-------2----2-------2----2-------2----0----|
D|----------5-5-5-5--3--2--0---------------------------------------------|
A|-------------------1--3---------------3------------2-------------------|
E|--------3-------------------------------------------------------3------|
   Am11   BbM7    E7sus4
e|-----------------0-----|
B|-----3--------3--3-----|
G|-----5------3-2--2-----|
D|---5------3------0-----|
A|-0------1--------2-----|
E|-----------------0-----|

CHORUS
Dm                Dm7/C               Bbadd9          Am11           Dm
    Rewind, I wanna go it again, light up the dark, halo on the side
                         Dm7/C
So I'll know it will not leave me wanting
  Gsus4  G      BbM7   C        Dm
I see my heart, waving me bye bye
               Dm7/C               Dm6/B        G7sus4  Am11     BbM7  E7sus4
Rewind, I wanna go it again, light up the dark, halo    on the side

INTERLUDE (repeat intro)

VERSE2 (like verse1)
If life itself has a meaning
Is it anything more than what we choose to call it
Sweet words make appealing
But they only serve to mask the smell of what you buried
Is it worth your while to spend on a lie
Even though you cannot see eye to eye
And give in to the rumour seduction
Run by fear and all the good intentions

CHORUS
Rewind, I wanna go it again, light up the dark, halo on the side
So I'll know it will not leave me wanting
Like my love, kissing me good bye                             Gm...
Rewind, I wanna go it again, light up the dark, halo on the side

BRIDGE
...Bb  C  Dm  Am7
   Gm      Bb     C        Dm    Am7
If this is how we think we make amends
     Gm       Bb    C         Dm    Am7
Then we're in for a race that never ends
    Gm       Bb    C           Dm      Gm     Am7    C        Dm
And where is it we think we'll go, and what is it we think we know
      Gm    Bb       C      Dm        Gm      Bb  C
It'll never change until we change ourselves, oooooh

CHORUS
Rewind, I wanna go it again, light up the dark, halo on the side
So I'll know it will not leave me wanting
I see my heart, waving me bye bye
Rewind, I wanna go it again, light up the dark, halo on the side
So I'll know it will not leave me wanting
Like my love, kissing me good bye
Rewind, I wanna go it again, light up the dark, halo on the side.

OUTRO (almost like intro)

=========================================================================
Comment, rate, appreciate!
Suggest correction
Give kudos to tab author, rate the tab!
1 2 3 4 5
comments
print report bad tab
3 comments total.
+1 reply
Aydarin 69 Apr 01, 2010 01:15 PM

Thank you from the Russian fan. I'll wait for other songs, especially "Given and Denied"

0 reply
dussydru 10 Dec 25, 2010 07:55 AM

Man!!! It's real great job!!! Thanks for the tab!!!

0 reply
BeardedMIchael 165 Jul 16, 2012 07:11 AM

Thanks for your job.I figured out OUTRO.After the last "..halo on the side" play Asus4(577755) and then OUTRO
Dm C G/B Bb6 C Dm C G/B Bb6 C
e|------------------------5---5--3-3--3---------3-------|
B|-5h6--5---3----3--5--5h6--5----3--3--3------3---3-----|
G|------0-0-0-0--0--0-------0--------0--0----0-0----0---|
D|-7-------------------7--------------------------------|
A|-5----3---2----1--3--5----3----2--------2-1---------1-|
End with Dm E-1-OR E---
B-3- B-6-
G-2- G-7-
D-0- D-7-
A-5-

guest
You may want to rate the tab now too:
select rating
Wanna post a correction for this tab? Suggest correction