Oops, an error
Loading. Please wait.

Roses Bass Tab

version 1
version 1

Whole song

Interactive

876 views 3 this week
no commentswrite comment
1 2 3 4 5
2 more votes to show rating
add to favorites
launch autoscroll
font size
0
reset
guitar tuner
Autoscroll
slow
fast
+/-
esc
set tempo
stop
Help us to improve Ultimate-Guitar.com Take our survey!
×
Author
Difficulty
novice
Name: Roses
Instrument: Bass
Artist: Poets of the Fall
Album: Carnival of Rust

Tuned: EADG

Intro:
E-----------------------------I
A-----------------------------I
D-----------------------------I
G-----------------------------Ix2

Verse:
E-3-0-----------0-3----------I------3-0-------0-3--------I
A--------3-3-----------5-5---I----------3-3---------0-53-I
D----------------------------I---------------------------I
G----------------------------I---------------------------Ix3

Bridge:
E-0-0-0-0-----------3-3-3-3------------I
A----------3-3-3-3------------5-5-5-5--I
D--------------------------------------I
G--------------------------------------Ix2

Chorus:
E-3-0-------0-3-------I----3-0------0-3-------I
A------3-33------5-55-I--------3-33------5-55-I
D---------------------I-----------------------I
G---------------------I-----------------------Ix2

Verse

Bridge 

Chorus

Middle Eight:
E----------------------------------I
A-5-7-5-3-5-7-5-3-5-7-5-3-5-7-3-7--I
D----------------------------------I
G----------------------------------I

Bridge

Chorus (untill the end)
Suggest correction
Give kudos to tab author, rate the tab!
1 2 3 4 5
comments
print report bad tab
guest
You may want to rate the tab now too:
select rating
Wanna post a correction for this tab? Suggest correction