Oops, an error
Loading. Please wait.

Roses Tab

version 2
version 2

Whole song

Interactive

11,645 views 6 this week
1 commentread comment
1 2 3 4 5
excellent!
x 9
add to favorites
launch autoscroll
font size
0
reset
how to read this tab
guitar tuner
Tab Pro tools
  • play this tab
  • loop segment
  • change instrument
  • show fretboard
  • metronome
×
Best way to learn
"Roses"
Autoscroll
slow
fast
+/-
esc
set tempo
stop
Contributor
Difficulty
intermediate
-------------------------------------------------------------------------------
                           Roses - Poets of the Fall
-------------------------------------------------------------------------------

Tabbed by: djlj

Tuning: Standard tuning

I've had an issue with the tab already submitted for this song due to some major 
I've spent a while figuring out the real intro. Here's how the actual tab goes, and its pretty 
spot on:

Intro:

e|---0-------0-------3---2---0-----|
B|---0---3---3---3---3---3-----3---|
G|---0---0-------0-------2-------2-|
D|---------------------------------|  (repeat throughout the intro)
A|-------3-------------------------|
E|-0-------------3-------2---------|

This is the closest to how the intro is actually played that I could get.

Right before the chorus is a short down strummed bass note bridge that goes like this:

e|---------------------------------|
B|---------------------------------|
G|---------------------------------|
D|-2-2-2-2-2-2-2-2-0-0-0-0-0-0-0-0-|  (repeat x2)
A|-2-2-2-2-3-3-3-3-2-2-2-2-0-0-0-0-|
E|-0-0-0-0-0-0-0-0-3-3-3-3-2-2-2-2-|

Chorus: Em - C - G - D

Repeat all of the above for verse 2 and chorus 2 all the way to the end of the song. Enjoy!
comments
print report bad tab
1 comment total.
+2 reply
chr!s wrote on June 6 2010, 03:40 pm

e|---0--x------0--x------3--x--2---0-----|
B|---0--x--3---3--x--3---3--x--3-----3---|
G|---0--x--0------x--0------x--2-------2-|
D|------x---------x---------x------------|
A|------x--3------x---------x------------|
E|-0----x---------x--3------x--2---------|

the x represent a clap with the strumming-hand on your strings.

I want to post or [tab]
guest
You may want to rate the tab now too:
select rating
Please do not post tabs as comments. Select "correction" instead!