Oops, an error
Loading. Please wait.

Save Me Tab

version 1
version 1

Whole song

Interactive

3,361 views 1 this week
3 commentsread comments
1 2 3 4 5
excellent!
x 3
add to favorites
launch autoscroll
font size
0
reset
how to read this tab
guitar tuner
Autoscroll
slow
fast
+/-
esc
set tempo
stop
Help us to improve Ultimate-Guitar.com Take our survey!
×
Author
-----------------------------------------------------------------
SAVE ME - Poets of the Fall -----------------------------------------------------------------
Tabbed by: Fabba
Email: andre.oszwald@gmx.at

Tuning: Standard (EADGBE)

Verse (Play twice)

Guitar 1:
e|---------------------------------------------------------------|
B|---------------------------------------------------------------|
G|--44-----22-----44-------4-4-----------------------------------|
D|--44-----22-----44--2-2--4-4--2-2--4-4-4--0-/55-5--4-----------|
A|--22-----00-----22--2-2--2-2--2-2--4-4-4--2-/55-5--4-----------|
E|--------------------0-0-------0-0--2-2-2--2-/33-3--2-----------|

Guitar 2: (notation in single notes, play every note twice):
e|-----------------------------------------12---14---------------|
B|------------------12-14-12--12-14-12---12--12---14-12-14-------|
G|----------------13--------13---------15------------------------|
D|---------------------------------------------------------------|
A|---------------------------------------------------------------|
E|---------------------------------------------------------------|

Pre-chorus (keep struming the chords) (play twice)
Guitar 1:
e|---------------------------------------------------------------|
B|---------------------------------------------------------------|
G|-------------6------------4------------------------------------|
D|-7-----------6------------4----------6-------------------------|
A|-7-----------4------------2----------6-------------------------|
E|-5-----------------------------------4-------------------------|

(on second time)
Guitar 2:
e|---------------------------------------------------------------|
B|---------------------------------------------------------------|
G|------------666888999668899------------------------------------|
D|---------------------------------------------------------------|
A|------------444666777446677------------------------------------|
E|---------------------------------------------------------------|

Chorus (play twice)

Guitar 1:
e|---------------------------------------------------------------|
B|---------------------------------------------------------------|
G|-666--6666--------------------------------4444---5555----------|
D|-666--6666----7777---7777---4444---4444---4444---6666---\\\----|
A|-444--4444----7777---7777---4444---4444---2222---3333---\\\----|
E|--------------5555---5555---2222---2222-----------------\\\----|

Guitar 2:
e|---------------------------------------------------------------|
B|-14-14-14-14-14-14-14-14-14-14-14-14-14-14-12-12-9-9-9---------|
G|---------------------------------------------------------------|
D|-11-11-11-11-11-11-11-11-11-11-11-11-11-11-9--9--6-6-6---------|
A|---------------------------------------------------------------|
E|---------------------------------------------------------------|


- 2nd Verse

- Pre chorus (with 2nd guitar):

Guitar 2:
E|-7-------7-------7-------7-------7-------7-------7-------7-----|
B|------5-------5-------5-------5-------5-------5-------5--------|
G|---8-------8-------8-------8-------8-------8-------8-------8---|
D|---------------------------------------------------------------|
A|---------------------------------------------------------------|
E|---------------------------------------------------------------|

- Chorus

- Bridge part 1

Guitar 2:
E|-7-------7-------7-------7-------7-------7-------7-------7-----|
B|------5-------5-------5-------5-------5-------5-------5--------|
G|---8-------8-------8-------8-------8-------8-------8-------8---|
D|---------------------------------------------------------------|
A|---------------------------------------------------------------|
E|---------------------------------------------------------------|

- Bridge part 2 (play twice)

Guitar 1:
e|---------------------------------------------------------------|
B|---------------------------------------------------------------|
G|-6\---------------------------------------------4\------5\-----|
D|-6\---------------7\---------------4------------4\------6\-----|
A|-4\---------------7\---------------4------------2\------3\-----|
E|------------------5\---------------2---------------------------|

on second time with Guitar 2:

Guitar 1:
e|---------------------------------------------------------------|
B|---------------------------------------------------------------|
G|-6\---------------------------------------------4\------5\-----|
D|-6\---------------7\---------------4------------4\------6\-----|
A|-4\---------------7\---------------4------------2\------3\-----|
E|------------------5\---------------2---------------------------|

Guitar 2:
(listen for the exact number)
e|---------------------------------------------------------------|
B|---------------------------------------------------------------|
G|---------------------------------------------------------------|
D|-6-6-6-6-6-6-6-6---------------------------------4-4-4-4-6-666-|
A|--4-4-4-4-4-4-4-4-7-7-7-7-7-7-7-7--4-4-4-4-4-4-4--2-2-2-2-3333-|
E|-------------------5-5-5-5-5-5-5-5--2-2-2-2-2-2-2--------------|

- Chorus

- End:

Guitar 1:
e|---------------------------------------------------------------|
B|---------------------------------------------------------------|
G|-666--6666--------------------------------4-4-4-4-5-5-5-5-6\---|
D|-666--6666----7777---7777---4444---4444---4-4-4-4-6-6-6-6-6\---|
A|-444--4444----7777---7777---4444---4444---2-2-2-2-3-3-3-3-4\---|
E|--------------5555---5555---2222---2222------------------------|

Guitar 2:
e|---------------------------------------------------------------|
B|-14-14-14-14-14-14-14-14-14-14-14-14-14-14-12-12-9-9-9---------|
G|---------------------------------------------------------------|
D|-11-11-11-11-11-11-11-11-11-11-11-11-11-11-9--9--6-6-6---------|
A|---------------------------------------------------------------|
E|---------------------------------------------------------------|

Guitar 3:
e|---------------------------------------------------------------|
B|-------------------------------------7-------7-----------------|
G|-6-8-9-8-6-8-9-8-6-8-9-8-6-8-9-8---6---6---6---6-4444-5555-6\--|
D|---------------------------------8-------8---------------------|
A|---------------------------------------------------------------|
E|---------------------------------------------------------------|



| /  slide up
| \  slide down
| h  hammer-on
| p  pull-off
| ~  vibrato
| +  harmonic
| x  Mute note
Suggest correction
Give kudos to tab author, rate the tab!
1 2 3 4 5
comments
print report bad tab
3 comments total.
0 reply
finger-of-doom 91 wrote on May 25 2008, 10:31 am

Great job dude!

0 reply
bite heads off 10 wrote on July 19 2009, 03:41 pm

its great tab

0 reply
simpaa 85 wrote on December 27 2010, 07:16 pm

You're one dependable tabber

guest
You may want to rate the tab now too:
select rating
Wanna post a correction for this tab? Suggest correction