Oops, an error
Loading. Please wait.

The Beautiful Ones Tab

version 1
version 1

Whole song

Interactive

17,294 views 1 this week
6 commentsread comments
1 2 3 4 5
x 11
add to favorites
launch autoscroll
font size
0
reset
how to read this tab
guitar tuner
Autoscroll
slow
fast
+/-
esc
set tempo
stop
Help us to improve Ultimate-Guitar.com Take our survey!
×
Author
Beautiful song...

~ let ring

Intro/Verse:

e|-----------------------------------------------------|
B|-------1-----1-----1-------------1-----1-----1-------|
G|---------2-----2-----2-------------0-----0-----0---0-|
D|---2-------2-----2-----------2-------2-----2-----2---|
A|-0---0-----------------0-2-3---3---------------------|
E|-----------------------------------------------------|
  Flies with a broken wing...

Bridge:

G G
And I am humbled...

Chorus:

e|---------------------------------------------------0~---|
B|-------1-------------3-------------3------------3~------|
G|-----2---2---2-----0---0---0---------0--------0---------|
D|---3-------3-----2-------2-------0-----0----2-----------|
A|-3-------------3---------------2---------3~-------------|
E|-----------------------------3--------------------------|
  Why do we sacrifice....

|---------------------------------------------0~-------|
|-------1-------------3-------------3-----3------3-----|
|-----2---2---2-----0---0---0---------0-----0------0---|
|---3-------3-----2-------2-------0-----0--------------|
|-3-------------3---------------2----------------------|
|-----------------------------3------------------------|

Part C:

C C G G   X 8
(humming)

Order:
Verse X 6
Bridge
Chorus X 2
Verse X 4
Bridge X 2
Chorus X 4
Part C
Chorus X 4
Suggest correction
comments
print report bad tab
6 comments total. Showing first comments.
0 reply
Fabba 244 Apr 28, 2006 06:35 PM

Perfect :-D

0 reply
Holden_Caulfild 10 Nov 08, 2007 12:43 PM

This tab is brilliant

0 reply
steltti2 21 Sep 08, 2008 03:01 AM

The intro's second chord should be C and therefore leaving the G-string open (0). Otherwise good job! Also..If you with to strum the chrous part, the chords are something like F, C,G,C -- F,C,G,G

guest
You may want to rate the tab now too:
select rating
Wanna post a correction for this tab? Suggest correction