Oops, an error
Loading. Please wait.

The Ultimate Fling Tab

version 1
version 1

Acoustic

Interactive

3,828 views 1 this week
5 commentsread comments
1 2 3 4 5
2 more votes to show rating
add to favorites
launch autoscroll
font size
0
reset
how to read this tab
guitar tuner
Autoscroll
slow
fast
+/-
esc
set tempo
stop
Help us to improve Ultimate-Guitar.com Take our survey!
×
Author
Difficulty
advanced
----------------------------|
----------------------------|
--------------8-------------|
--------6-------------------|
---4------------------------|
-----------------5----------|
(x2)

-------------------0--------|
--------------------0-------|
----------------8----8------|
---------6------------------|
----4-----------------------|
------------------5---------|


--------------------------------0---|
--------------------------------0---|
--------------------------------2---|
-----------------6--------------2---|
---------4-----------0----------0---|
--2---------------------------------|
Just before the Chorus starts there is a: (244322) chord! Chorus: (046600) 
(7x6600) (02344s50), (046600) (7x6600)(022000)(002200).

2:08 in the song the bas notes comes in. Here are the chords: (0466) (7x66) (244) (0022)
cant the other bas note part all i know is that it is an (244322) Chord, Sorry about that. 
you go! have fun :D

Tabbed By: Flugsaft.

Note: (s) on the (02344s50) chord menas that you slide the b string to the fifth fret.

I'm sorry if the tab is a little of a mess. This is my first tab. :)
Suggest correction
Give kudos to tab author, rate the tab!
1 2 3 4 5
comments
print report bad tab
5 comments total. Showing first comments.
0 reply
Flugsaft 38 Apr 08, 2008 11:34 AM

I'm Sorry. I did the tab wrong.. I'm Sorry. The Real tab will come soon this isn't right i have forgotten a few chords and so forth. Just wait and the real good one will come up soon. :)

0 reply
Flugsaft 38 Apr 09, 2008 11:10 AM

This Is The Correct Tab Now! :D.. Thanks!

0 reply
G-FORCE 69 10 Apr 26, 2008 08:23 AM

In the part
----------------------------|
----------------------------|
--------------8-------------|
--------6-------------------|
---4------------------------|
-----------------5----------|

you should do
----------------------------|
----------------------------|
--------------8-------------|
--------6-------------------|
---4------------------------|
-----------------0----------| its like ollie plays ive say it and its easier

guest
You may want to rate the tab now too:
select rating
Wanna post a correction for this tab? Suggest correction