Oops, an error
Loading. Please wait.

War Bass Tab

version 1
version 1

Whole song

Interactive

1,671 views 6 this week
no commentswrite comment
1 2 3 4 5
x 3
add to favorites
launch autoscroll
font size
0
reset
guitar tuner
Autoscroll
slow
fast
+/-
esc
set tempo
stop
Help us to improve Ultimate-Guitar.com Take our survey!
×
Difficulty
novice
---------------------------------------------------------------------------- 
War - Poets of the Fall      
----------------------------------------------------------------------------

Tabbed By : t.a.blomqvist
e-mail: monophonik@f-m.fm

Tuning: Standard 5-String

Verse
G|----------------------------|
D|----------------------------|
A|-7------5--3---7------5-----| x3
E|-------------------------5--|
B|----------------------------|

G|--------------------------------------|
D|--------------------------------------|
A|----------------------3---------------|
E|-2------5-----------------------------|
B|---------------3--------------00000000|

Chorus
G|-----------------------------------|
D|-----------------------------------|
A|---------0--------------0---2--5-2-|
E|-0--0---3---3---0--0---3-----------|
B|---------------3-------------------|

G|----------------------------------------|
D|----------------------------------------|
A|---------0-------------0~---------------|
E|-0--0---3---3-2-0--0--3-----3~---1~-----|
B|----------------------------------------|

Verse
G|----------------------------|
D|----------------------------|
A|-7------5--3---7------5-----| x2
E|-------------------------5--|
B|----------------------------|

G|----------------------------|
D|----------------------------|
A|-7------5--3---7------5-----|
E|-------------------------5-3|
B|----------------------------|

G|--------------------------------------|
D|--------------------------------------|
A|----------------------3---------------|
E|-2------5----0----------------55555555|
B|---------------3----------------------|

Chorus
G|-----------------------------------|
D|-----------------------------------|
A|---------0--------------0---2--5-2-|
E|-0--0---3---3---0--0---3-----------|
B|---------------3-------------------|

G|-----------------------------------------------------|
D|-----------------------------------------------------|
A|---------0------------7--5--3--5----------0---2--5-2-|
E|-0--0---3---3---3--7--------------0--0---3-----------|
B|-----------------------------------------------------|

G|---------------------------------------------|
D|---------------------------------------------|
A|---------0-------------0~--------------------|
E|-0--0---3---3-2-0--0--3-----3~---3~---1~-----|
B|---------------------------------------------|

G|---------------------------------------------|
D|---------------------------------------------|
A|---------------------------------------------|
E|-3-3-331-1-115-5-556-6-666-6-666-------------|
B|--------------------------------3~-----------|

Acoustic guitar (play along if you wish)
G|----------------------------|
D|----------------------------|
A|-5--3---2--1---5--3---1--0--|
E|----------------------------|
B|----------------------------|

G|----------------------------|
D|----------------------------|
A|----------------------------|
E|-3--1---0------3--1---------|
B|-----------3----------4--2--|

G|------------------------------------------------------------------|
D|------------------------------------------------------------------|
A|-1--3-----------------------5-5-5-5-553-3-3-3-332-2-2-2-2222222222|
E|---------------3--1-----------------------------------------------|
B|--------4--6----------4--2----------------------------------------|

Chorus
G|-----------------------------------|
D|-----------------------------------|
A|---------0--------------0---2--5-2-|
E|-0--0---3---3---0--0---3-----------|
B|---------------3-------------------|

G|-----------------------------------------------------|
D|-----------------------------------------------------|
A|---------0------------7--5--3--5----------0---2--5-2-|
E|-0--0---3---3---3--7--------------0--0---3-----------|
B|-----------------------------------------------------|

G|-------------------------------------------|
D|-------------------------------------------|
A|---------0-------------0~------------------|
E|-0--0---3---3-2-0--0--3-----3~---3~---1~---|
B|-------------------------------------------|

Outro
G|-------------------------------------------|
D|-------------------------------------------|
A|------------------------/13~---------------|
E|-3~----1~----5~----6~----------------------|
B|--------------------------------3~---------|


A very special woman asked me to learn this beautiful song and this is how
hear it. I play a 5-string bass so that is why it's tabbed like it is, but
with a little tuning/fixing you could play it with a 4-string too. Rate and
Enjoy!

I dedicate the song to E.

Suggest correction
Give kudos to tab author, rate the tab!
1 2 3 4 5
comments
print report bad tab
guest
You may want to rate the tab now too:
select rating
Wanna post a correction for this tab? Suggest correction