Oops, an error
Loading. Please wait.

War Tab

version 2
version 2

Intro

Interactive

12,406 views 3 this week
2 commentsread comments
1 2 3 4 5
x 4
add to favorites
launch autoscroll
font size
0
reset
how to read this tab
guitar tuner
Autoscroll
slow
fast
+/-
esc
set tempo
stop
Help us to improve Ultimate-Guitar.com Take our survey!
×
Author
Difficulty
intermediate
      "War" intro riff (also used in verses)              (Alan Wake fan)

 E ----------------------------------------------------------------------------|
 B ------0-----0---0-----------------------------------------------------------|
 G ----0-----------------0------0---0------------------------------------------|
 D --2-----2-4---4---0-4------0---2--------------------------------------------|
 A -------------------------3--------------------------------------------------|
 E ----------------------------------------------------------------------------|

 E ----------------------------------------------------------------------------|
 B ------0-----0---0----------------0------------------------------------------|
 G ----0-----------------0------0-2--------------------------------------------|
 D --2-----2-4---4---0-4------0------------------------------------------------|
 A -------------------------3--------------------------------------------------|
 E ----------------------------------------------------------------------------|

     * Let the 0's on the 2nd and 3rd strings continue to ring

    Tabbed by Rob Routon
Suggest correction
comments
print report bad tab
2 comments total.
0 reply
Mark Roxx 295 May 21, 2013 08:21 PM

Why an octave too low??

0 reply
Karl_Wake 10 Dec 26, 2013 12:52 PM

Nooooooooo....

NOOOOOOOOOOOOOOOOOOO !!!!

guest
You may want to rate the tab now too:
select rating
Wanna post a correction for this tab? Suggest correction