Oops, an error
Loading. Please wait.

Youre Still Here Tab

version 1
version 1

Intro

4,503 views 3 this week
3 commentsread comments
1 2 3 4 5
3 more votes to show rating
add to favorites
launch autoscroll
font size
0
reset
how to read this tab
guitar tuner
Autoscroll
slow
fast
+/-
esc
set tempo
stop
Help us to improve Ultimate-Guitar.com Take our survey!
×
Author
Difficulty
novice
Band: Poets Of The Fall
Song: You're Still Here
Album: Twilight Theater
Date: Wed, 17.03.2010

Tabs:

e| ---------7------------7-------------------------------------|
B| -----8----8---------8---8-------------9--------8--7---------|
G| ----------------------------------8-----8------7--6---------|
D| ---9---9----9-----9-------9-----8---8-----8----9--8---------|
A| -7---------------------------------------------7--6---------|
E| ---------------10-------------7-----------------------------|

Hope you liked it :)
Suggest correction
Give kudos to tab author, rate the tab!
1 2 3 4 5
comments
print report bad tab
3 comments total.
0 reply
Fost' 10 May 27, 2010 09:44 AM

Hello.
Thanks for your work on this tab, but we think with a friend that there are somes mistakes.
Play like this:

e| ---------7------------7-------------------------------------|
B| -----8----8---------8---8-------------10-------8--7---------|
G| ----------------------------------9-----9------7--8---------|
D| ---9---9----9-----9-------9-----9---9-----9----9--7---------|
A| -7---------------------------------------------7--9---------|
E| ---------------10-------------8-----------------------------|


No?
Thanks for the first tab tato_13.

0 reply
tato_13 72 Jun 04, 2010 07:39 PM

yeah, you're right.
thanks!

0 reply
Pale 10 Jul 12, 2010 07:06 PM

my own version

e -----------7------------------7-----------------------------
b ------8-------8-----------8------8--------------10-------8-7
g ----9---9--------9-----9----9------9--------9------9-----8-8
d ------------------------------------------9---9------9---7-7
a -7----------------------------------------------------------
E --------------------10-----------------8-----------------7-7

guest
You may want to rate the tab now too:
select rating
Wanna post a correction for this tab? Suggest correction