Oops, an error
Loading. Please wait.

A Rainy Night In Soho Bass Tab

2,081 views 6 this week
no commentswrite comment
1 2 3 4 5
excellent!
x 3
add to favorites
launch autoscroll
font size
0
reset
guitar tuner
Tab Pro tools
  • play this tab
  • loop segment
  • change instrument
  • show fretboard
  • metronome
×
Best way to learn
"A Rainy Night In Soho"
Autoscroll
slow
fast
+/-
esc
set tempo
stop
Contributor
Song: Rainy Night in Soho 
Artist: The Pogues
Album: Poguetry in Motion
Tabbed by: Kris Pender
Standard Tuning

Intro
|----------------------------------|-----------------------------------|
|-----------5--------------------2-|-3----------------5----------------|
|-3-----------------3------3--5----|-----------------------------------|
|----------------------------------|-----------------------------------|

|----------------------------------|-----------------------------------|
|-----------5--------------------2-|-3----------------5----------------|
|-3-----------------3------3--5----|-----------------------------0--2--|
|----------------------------------|-----------------------------------|

I've been loving you a long time..
|----------------------------------|-----------------------------------|
|----------------------------------|-----------------------------------|
|-3--------------------------------|-----------------------------------|
|----------------------------------|-----------------------------------|

|----------------------------------|-----------------------------------|
|----------------------------------|-----------------------------------|
|----------------------------------|-----------------------------------|
|----------------------------------|-----------------------------------|

|----------------------------------|-----------------------------------|
|----------------------------------|-----------------------------------|
|----------------------------------|-----------------------------------|
|----------------------------------|-----------------------------------|

|----------------------------------|-----------------------------------|
|----------------------------------|-----------------------------------|
|----------------------------------|-----------------------------------|
|----------------------------------|-----------------------------------|

We watched our friends grow up together..
|----------------------------------|-----------------------------------|
|----------------------------------|-3----------------5----------------|
|-3--------------------------------|-----------------------------------|
|----------------------------------|-----------------------------------|

|----------------------------------|-----------------------------------|
|----------------------------------|-3----------------5----------------|
|-3--------------------------------|-----------------------------------|
|----------------------------------|-----------------------------------|

|----------------------------------|-----------------------------------|
|----------------------------------|-3----------------5----------------|
|-3--------------------------------|-----------------------------------|
|----------------------------------|-----------------------------------|

|----------------------------------|-----------------------------------|
|----------------------------------|-3----------------5----------------|
|-3--------------------------------|-----------------------------------|
|----------------------------------|-----------------------------------|

I took shelter from a shower..
|----------------------------------|-----------------------------------|
|----------------------------------|-3----------------5----------------|
|-3--------------------------------|-----------------------------------|
|----------------------------------|-----------------------------------|

|----------------------------------|-----------------------------------|
|----------------------------------|-3----------------5----------------|
|-3--------------------------------|-----------------------------------|
|----------------------------------|-----------------------------------|

On a rainy night in Soho..
|----------------------------------|-----------------------------------|
|----------------------------------|-3----------------5----------------|
|-3--------------------------------|-----------------------------------|
|----------------------------------|-----------------------------------|

|----------------------------------|-----------------------------------|
|----------------------------------|-3----------------5----------------|
|-3--------------------------------|-----------------------------------|
|----------------------------------|-----------------------------------|

I sang you all my sorrows..
|----------------------------------|-----------------------------------|
|----------------------------------|-3----------------5----------------|
|-3--------------------------------|-----------------------------------|
|----------------------------------|-----------------------------------|

|----------------------------------|-----------------------------------|
|----------------------------------|-3----------------5----------------|
|-3--------------------------------|-----------------------------------|
|----------------------------------|---------------------------3-------|

|----------------------------------|-----------------------------------|
|----------------------------------|-3----------------5----------------|
|-3--------------------------------|------------------------------0--2-|
|----------------------------------|---------------------------3-------|

|----------------------------------|-----------------------------------|
|----------------------------------|-3----------------5----------------|
|-3--------------------------------|-----------------------------------|
|----------------------------------|---------------------------3-------|


|----------------------------------|-----------------------------------|
|-----------5--------------------2-|-3------------3--5-----------------|
|-3-----------------3------3--5----|------------------------------0--2-|
|----------------------------------|---------------------------3-------|

|----------------------------------|-----------------------------------|
|-----------5--------------------2-|-3------------3--5-----------------|
|-3-----------------3------3--5----|------------------------------0--2-|
|----------------------------------|---------------------------3-------|

|----------------------------------|-----------------------------------|
|----------------------------------|-3---------------------------------|
|-3------------3--3--------------3-|------------------------------0--2-|
|----------------------------------|-----------------3---------3-------|  

Sometimes I wake up in the morning..
|----------------------------------|-----------------------------------|
|----------------------------------|-3---------------------------------|
|-3--------------------------------|-----------------------------------|
|----------------------------------|-----------------3-----------------|

|----------------------------------|-----------------------------------|
|----------------------------------|-3---------------------------------|
|-3--------------------------------|------------------------------0--2-|
|----------------------------------|-----------------3---------3-------|

|----------------------------------|-----------------------------------|
|----------------------------------|-3---------------------------------|
|-3--------------------------------|-----------------------------------|
|----------------------------------|-----------------3--------------3--|

|----------------------------------|-----------------------------------|
|----------------------------------|-3---------------------------------|
|-3--------------------------------|------------------------------0--2-|
|----------------------------------|-----------------3---------3-------|

I'm not singing for the future..
|----------------------------------|-----------------------------------|
|----------------------------------|-3---------------------------------|
|-3-----------------------------3--|------------------------------0--2-|
|----------------------------------|-----------------3---------3-------|

|----------------------------------|-----------------------------------|
|-----------------------------/2---|-3---------------------------------|
|-3--------------------------------|------------------------------0--2-|
|----------------------------------|-----------------3---------3-------|

|----------------------------------|-----------------------------------|
|-----------------------------/2---|-3---------------------------------|
|-3--------------------------------|------------------------------0--2-|
|----------------------------------|-----------------3---------3-------|

|----------------------------------|-----------------------------------|
|------------------------------2---|-3---------------------------------|
|-3-------------------------3------|------------------------------0--2-|
|----------------------------------|-----------------3---------3-------|

|----------------------------------|-----------------------------------|
|----------------------------------|-3----------3----------------------|
|-3-----------------------------3--|------------------------------0--2-|
|----------------------------------|-----------------3---------3-------|

|----------------------------------|-----------------------------------|
|----------------------------------|-3---------------5-----------------|
|-3--------------------------------|------------------------------0--2-|
|----------------------------------|---------------------------3-------|

|----------------------------------|-----------------------------------|
|-------------------------------2--|-3---------------------------------|
|-3--------------------------------|------------------------------0--2-|
|----------------------------------|-----------------3---------3-------|

|----------------------------------|-----------------------------------|
|-------------------------------2--|-3---------------------------------|
|-3--------------------------------|------------------------------0--2-|
|----------------------------------|-----------------3---------3-------|

Outro
|----------------------------------|-----------------------------------|
|-----------5--------------------2-|-3---------------5-----------------|
|-3-----------------3------3--5----|-----------------------------0--2--|
|----------------------------------|--------------------------3--------|

|----------------------------------|-----------------------------------|
|-----------5--------------------2-|-3---------------5-----------------|
|-3-----------------3------3--5----|-----------------------------0--2--|
|----------------------------------|--------------------------3--------|

|----------------------------------|-----------------------------------|
|-----------5--------------------2-|-3---------------5-----------------|
|-3-----------------3------3--5----|-----------------------------0--2--|
|----------------------------------|--------------------------3--------|

|----------------------------------|-----------------------------------|
|-----------5--------------------2-|-3---------------5-----------------|
|-3-----------------3------3--5----|-----------------------------0--2--|
|----------------------------------|--------------------------3--------|

|----------------------------------|-----------------------------------|
|-----------5--------------------2-|-3---------------5-----------------|
|-3-----------------3------3--5----|-----------------------------0--2--|
|----------------------------------|--------------------------3--------|

|----------------------------------|-----------------------------------|
|-----------5--------------------2-|-3---------------5-----------------|
|-3-----------------3------3--5----|-----------------------------0--2--|
|----------------------------------|--------------------------3--------|

Repeat to fade out
comments
We did not receive enough feedback on this tab! Please rate:
print report bad tab
1 2 3 4 5
I want to post or [tab]
guest
You may want to rate the tab now too:
select rating
Please do not post tabs as comments. Select "correction" instead!