Oops, an error
Loading. Please wait.

Dirty Old Town Tab

version 2
version 2

Whole song

Interactive

19,686 views 6 this week
no commentswrite comment
1 2 3 4 5
accurate
x 6
add to favorites
launch autoscroll
font size
0
reset
how to read this tab
guitar tuner
Tab Pro tools
  • play this tab
  • loop segment
  • change instrument
  • show fretboard
  • metronome
×
Best way to learn
"Dirty Old Town"
Autoscroll
slow
fast
+/-
esc
set tempo
stop
Contributor
Tabbed By: Irishman94
Artist: Pogues
Song: Dirty Old Town
Tuning: eBGDAE (Standard)

This is a tab of the vocal part but i will do one with matching chords. 
It is easier to learn if you already know the Ionian/Major scale. This is in the key of D.

e|---------------------------|----10-12-10-------------|
B|---------12----10-12-------|-12----------12-10----12-|
G|----9-12----12-------12----|-------------------12----|
D|-12---------------------12-|-------------------------|
A|---------------------------|-------------------------|
E|---------------------------|-------------------------|

e|----12-10-------------------|----------------------|
B|-12-------12----10-12-------|------12-10-10--------|
G|-------------12-------12----|----9----------12-9-9-|
D|-------------------------12-|-12-------------------|
A|----------------------------|----------------------|
E|----------------------------|----------------------|

REPEAT THIS FOR ALL VERSES, ITS SIMPLE,
HOPE YOU LIKED THE TAB! 
comments
print report bad tab
I want to post or [tab]
guest
You may want to rate the tab now too:
select rating
Please do not post tabs as comments. Select "correction" instead!