Oops, an error
Loading. Please wait.

Fairytale Of New York Bass Tab

version 1
version 1

Whole song

Interactive

4,059 views 1 this week
1 commentread comment
1 2 3 4 5
please rate
add to favorites
launch autoscroll
font size
0
reset
guitar tuner
Tab Pro tools
  • play this tab
  • loop segment
  • change instrument
  • show fretboard
  • metronome
×
Best way to learn
"Fairytale Of New York"
Autoscroll
slow
fast
+/-
esc
set tempo
stop
Fairy tale of New York

The Pogues



|----------------|----------------|----------------|----------------|
|----------------|----------------|----------------|----------------|
|5-------0-------|5-----------5---|5---0---2-------|5---5---5---0---|
|----------------|----3---5-------|------------3---|----------------|


|----------------|----------------|----------------|----------------|
|----------------|----------------|----------------|----------------|
|5---2---5-------|5---2---5-------|5---0---5---5---|5---5---5---0---|
|------------3---|------------3---|----------------|----------------|


|----------------|----------------|----------------|----------------|
|----------------|----------------|----------------|----------------|
|5-------0---5---|5---5---5---0---|5-------0---5---|--------2---0---|
|----0-----------|----------------|----3-----------|3---3-----------|

 
|----------------|----------------|----------------|----------------|
|----------------|----------------|----------------|----------------|
|5---5---2---2---|5-------0---0---|5---0---2---3---|3---5---0---0---|
|----------------|----3-----------|----------------|----------------|

|----------------|----------------|----------------|----------------|
|----------------|----------------|----------------|----------------|
|5---2---5---3---|3---5---0---3---|5---5---5---0---|5-------0---5---|
|----------------|----------------|----------------|----3-----------|

|    
|----------------|----------------|----------------|----------------|
|----------------|----------------|----------------|----------------|
|5---5---5---0---|5---3---0---5---|--------2---0---|5---5---2---2---|
|----------------|----------------|3---3-----------|----------------|

   
|----------------|----------------|----------------|----------------|
|----------------|----------------|----------------|----------------|
|5-------0---0---|5---0---2---3---|3---5---0---0---|5---2---5---3---|
|----3-----------|----------------|----------------|----------------|


|----------------|----------------|----------------|----------------|
|----------------|----------------|----------------|----------------|
|3---5---0-------|5---------------|----------------|5---------------|
|------------5---|----------------|3---------------|----------------|


|----------------|----------------|----------------|----------------|
|----------------|----------------|----------------|----------------|
|----------------|5---------------|----------------|5---------------|
|5---------------|----------------|3---------------|----------------|

 
|----------------|----------------|----------------|----------------|
|----------------|----------------|----------------|----------------|
|--------5---5-5-|5-5-5-5-5-5-5-5-|--------2---0---|5---5---2---2---|
|3---5-----------|----------------|3---3-----------|----------------|


|----------------|----------------|----------------|----------------|
|----------------|----------------|----------------|----------------|
|5---------------|5---0---2---3---|3---5---0---0---|5---2---5---3---|
|----------------|----------------|----------------|----------------|


|----------------|
|----------------|
|3---5---0---3---|
|----------------|
comments
We did not receive enough feedback on this tab! Please rate:
print report bad tab
1 2 3 4 5
1 comment total.
0 reply
boycew02 wrote on April 23 2008, 04:32 pm

Some okay bits but it's very confusingly layed out. The verses are kinda messed up though and during the chorus there should be a lot of notes played on the G and D strings.

I want to post or [tab]
guest
You may want to rate the tab now too:
select rating
Please do not post tabs as comments. Select "correction" instead!