Oops, an error
Loading. Please wait.

Fairytale Of New York tab

version 1
version 1

Whole song

Interactive

by Pogues
160,307 views 66 this week
14 commentsread comments
1 2 3 4 5
x 60
add to favorites
×
Save as Personal and add changes to this tab that will be seen only by you. Learn more ›
×
You can save this tab as Personal to edit and correct it or add notes. All changes will be seen only by you. Learn more »
launch autoscroll
font size
0
reset
how to read this tab
guitar tuner
backing track
0:00
0:00
edit
Autoscroll
slow
fast
+/-
esc
set tempo
stop
-------------------------------------------------------------------------------
                 Fairytale Of New York - The Pogues                        
Tabbed by: Kyle M

Tuning: Standard (EADGBE)

Intro

e|--------------------------------------------------------------------------||
B|---0---2-3--------------------------------------------------------------  |
G|-2---0-----2---0---------------------------------------------------------- |
D|-------------0---4-2-0-0---------------------------------------------------|
A|---------------------------------------------------------------------------|
E|---------------------------------------------------------------------------|
  
e|---------------------------------------------------------------------------|
B|---------------------------------------------------------------------------|
G|---------------------------------------------------------------------------|
D|---0---2-0-0-----12-12-11-11-9-9-----9-11-12-7-4-4-----0-5-4-4-2-2---------|
A|-0---4---------------------------------------------------------------------|
E|---------------------------------------------------------------------------|
    
e|---------------------------------------------------------------------------|
B|---------------------------------------------------------------------------|
G|---------------------------------------------------------------------------|
D|---0---2-0-0-----12-12-11-11-9-9-----9-11-12-7-4-4-----0-5-4-2-0-0---------|
A|-0---4---------------------------------------------------------------------|
E|---------------------------------------------------------------------------|
e|---------------------------------------------------------------------------|
B|---------------------------------------------------------------------------|
G|---------------------------------------------------------------------------|
D|---0---2-0-0-----12-12-11-11-9-9-----9-11-12-7-4-4-----0-5-4-4-2-2---------|
A|-0---4---------------------------------------------------------------------|
E|---------------------------------------------------------------------------|
    
e|---------------------------------------------------------------------------|
B|---------------------------------------------------------------------------|
G|---------------------------------------------------------------------------|
D|---0---2-0-0-----12-12-11-11-9-9-----9-11-12-7-4-4-----0-5-4-2-0-0---------|
A|-0---4---------------------------------------------------------------------|
E|---------------------------------------------------------------------------|

e|----------0----------------------------------------------------------------|
B|---0---2----2---0----------------------------------------------------------|
G|-2---0--------0---4-2-0----------------------------------------------------|
D|---------------------------------------------------------------------------|
A|---------------------------------------------------------------------------|
E|---------------------------------------------------------------------------|
  
 Bridge 

e|---------------------------------------------------------------------------|
B|---0-----------0-----------------------------------------------------------|
G|-2---2-------2---2---------------------------------------------------------|
D|-------4-0---------2-0-2-4-2-0-------------0-------------------------------|
A|-------------------------------2-0-2-0-2-4---------------------------------|
E|---------------------------------------------------------------------------|
     
 Verse

e|---0-2-0---0-2-0---------5-7-5-2---0-2-3-5-0-----5-7-5-2-----0-2-0---------|
B|-3-------3-------3-0-------------3-----------------------3-3-------3-0-----|
G|---------------------------------------------------------------------------|
D|---------------------------------------------------------------------------|
A|---------------------------------------------------------------------------|
E|---------------------------------------------------------------------------|

e|-----2-5-2---0-2-0---------------------------------------------------------|
B|---3-------3-------3-------------------------------------------------------|
G|-2-------------------------------------------------------------------------|
D|---------------------------------------------------------------------------|
A|---------------------------------------------------------------------------|
E|---------------------------------------------------------------------------|

e|-5-7-5-2-----5-7-5-0-----0-2-0---------------------------------------------|
B|----------------------3--------3-0---------2-3-----------------------------|
G|-----------------------------------2-4-2-4---------------------------------|
D|---------------------------------------------------------------------------|
A|---------------------------------------------------------------------------|
E|---------------------------------------------------------------------------|

e|-5-7-5-2-----5-7-5-0-----0-2-0---------------------------------------------|
B|----------------------3--------3-0---------2-3-----------------------------|
G|-----------------------------------2-4-2-4---------------------------------|
D|---------------------------------------------------------------------------|
A|---------------------------------------------------------------------------|
E|---------------------------------------------------------------------------|

 Chorus

e|-5-7-7-7-7-9-10-10-9-7-5--------------------3-2-0---2-0--------------------|
B|--------------------------7-3-5-7---3-5-7-3-------3-----3------------------|
G|---------------------------------------------------------------------------|
D|---------------------------------------------------------------------------|
A|---------------------------------------------------------------------------|
E|---------------------------------------------------------------------------|

REPEAT VERSE AND CHORUS
  
Outro

e|---------------------------------------------------------------------------|
B|-3-3-2-2-0-0-----0-2-3-----------------------------------------------------|
G|-----------------------2--------0------------------------------------------|
D|-------------------------4-4--0---4-2-0------------------------------------|
A|----------------------------------------4----------------------------------|
E|---------------------------------------------------------------------------|
   
(starting on "You Took My Dreams From Me...)
e|---------------------------------------------------------------------------|
B|---------------------------------------------------------------------------|
G|---------------------------------------------------------------------------|
D|-9-11-12-7-4-4--0-5-4-4-2-2-------0---2-0-0-----12-12-11-11-9-9---9-11-----|
A---------------------------------0---4--------------------------------------|
E|---------------------------------------------------------------------------|

e|---0---2-0-0-----12-12-11-11-9-9---9-11-12-7-4-4--0-4-0-5-4-2-0------------|
B|-0---4---------------------------------------------------------------------|
G|---------------------------------------------------------------------------|
D|---------------------------------------------------------------------------|
A|---------------------------------------------------------------------------|
E|---------------------------------------------------------------------------|

  Chorus

e|-5-7-7-7-7-9-10-10-9-7-5--------------------3-2-0---2-0--------------------|
B|--------------------------7-3-5-7---3-5-7-3-------3-----3------------------|
G|---------------------------------------------------------------------------|
D|---------------------------------------------------------------------------|
A|---------------------------------------------------------------------------|
E|---------------------------------------------------------------------------|
  Outro Instrumental
e|---------------------------------------------------------------------------|
B|-2-5-3-3--3-3-2-2-0-0---0-2-3----------------------------------------------|
G|------------------------------2---------0----------------------------------|
D|--------------------------------4-4---0---4-4-2-2--------------------------|
A|---------------------------------------------------------------------------|
E|---------------------------------------------------------------------------|

e|---------------------------------------------------------------------------|
B|-2-3-2-5-3-3---3-3-2-2-0-0---0-2-3-----------------------------------------|
G|-----------------------------------2---------0-----------------------------|
D|-------------------------------------4-4---0---4-2-0-----------------------|
A|-----------------------------------------------------4---------------------|
E|---------------------------------------------------------------------------|

REPEAT OUTRO INSTRUMENTAL AND FADE OUT


| /  slide up
| \  slide down
| h  hammer-on
| p  pull-off
| ~  vibrato
| +  harmonic
| x  Mute note
===============================================================================

            
            
Suggest correction
Creating personal tab
Creating personal tab
You can edit any tab online and save it as your Personal.

You can edit, replace or remove any tab part or add personal notes – all changes will be seen only by you.

Personal tabs can be accessed anytime from any device, even offline.
Learn more »
comments
print report bad tab
14 comments total. Showing first comments.
0 reply
Lukesaxton07 10 Sep 04, 2007 08:36 AM

Thats fantastic, full cred :)

0 reply
bramster 10 Dec 01, 2007 10:25 AM

great tab
!!!

0 reply
Emzrock56 10 Dec 26, 2007 04:54 PM

Feel free to correct me if I'm wrong, but it seems as if the chorus is missing a few notes at the end... does anyone
else see what I mean. Just where "and the bells are ringing out for christmas day" would kick in...

guest
You may want to rate the tab now too:
select rating
Wanna post a correction for this tab? Suggest correction