Oops, an error
Loading. Please wait.

Fairytale Of New York Bass Tab

version 2
version 2

Whole song

Interactive

9,822 views 1 this week
no commentswrite comment
1 2 3 4 5
please rate
add to favorites
launch autoscroll
font size
0
reset
guitar tuner
Tab Pro tools
  • play this tab
  • loop segment
  • change instrument
  • show fretboard
  • metronome
×
Best way to learn
"Fairytale Of New York"
Autoscroll
slow
fast
+/-
esc
set tempo
stop
Contributor
Band: The Pogues
Song: Fairytale of New York
Bassist: Darryl Hunt
Tuning: Standard

So it's April. Who cares? It's never too early for Christmas songs. :D
Here's the bass to my favourite Crimbo song ever - Fairytale of New York.
It kinda sucks that it has a faded out ending but you can't have everything.

Enjoy. :)


Intro - 1st part (0:07)

G|----| G|-----------|---------------|---------------|---------------|
D|----| D|-----------|---------------|5(r)----5(r)---|---------------|
A|----| A|----4--7---|5(r)-----------|---------------|---------------|
E|5---| E|-7---------|---------------|---------------|---------------|

G|----| G|-----------|---------------|---------------|---------------|
D|----| D|-----------|---------------|5(r)----5(r)---|---------------|
A|----| A|---4--7----|5(r)-----------|---------------|---------------|
E|5---| E|7----------|---------------|---------------|---------------|

-- rest until next intro -- bass in this part played by cello --


Intro - 2nd part (1:15)

G|2-7(r)---------|
D|---------------|
A|---------------|
E|---------------|


Intro - 3rd part(1:23)

G|7---------------|----------------|
D|----7-------7---|----------------|
A|--------5-------|5-----------5---|
E|----------------|----3---5-----35|


Verse 1 (1:30)

G|----------------|----------------|----------------|-----------------|
D|----------------|----7-------7---|----------------|-------5-7-------|
A|5---------------|5-------5-------|5-------5-------|5---5--------5---|
E|----5---7---3---|----------------|----7-------3---|---------------57|

G|----------------|----------------|----------------|----------------|
D|----7-------7---|----5---7-------|----7-------7---|----5---7-------|
A|5-------5-------|5-----------5---|5-------5-------|5-----------5---|
E|----------------|--------------35|----------------|----------------|


Chorus (1:53)

G|----------7-------|----------------|----------------|
D|5---5---7-----7---|4---------------|----5---7-------|
A|------------------|----5--7--------|5---------------|
E|------------------|---------7------|--------------35|


Post-chorus (2:03)

G|----------------|--------467-----|----------------|7---7------------|
D|----------------|----7-------7---|----------------|-------5-7-------|
A|5---------------|5---------------|5-------5-------|-------------5---|
E|----5---7---3---|----------------|----7-------3---|---------------35|


Verse 2 (2:14)

G|----------------|----------------|----------------|----------------|
D|----7-------7---|----5---7-------|----7-------7---|----5---7-------|
A|5-------5-------|5-----------5---|5-------5-------|5-----------5---|
E|----------------|--------------35|----------------|----------------|


Chorus (2:26)

G|----------7-------|----------------|---------------|
D|5---5---7-----7---|4---------------|----5---7---7--|
A|------------------|----5--7--------|5--------------|
E|------------------|---------7------|-------------35|


Bridge (2:36)

G|----------------|----------------|----------------|----------------|
D|----------------|0/5(r)----------|----------------|5---7-----------|
A|5(r)------------|----------------|0/5(r)----------|--------5-------|
E|----------------|----------------|----------------|------------5---|

G|----------------|----------------|----------------|----------------|
D|----------------|--5(r)----------|----------------|----------------|
A|0/5(r)----------|5---------------|0/5(r)----------|5---------------|
E|----------------|----------------|----------------|--5(r)----------|

G|----------------|----------------|----------------|----------------|
D|----------------|0/5(r)----------|----------------|5---7-----------|
A|0/5(r)----------|----------------|0/5(r)----------|--------5(r)----|
E|----------------|----------------|----------------|----------------|


Chorus (3:13)

G|----------7-------|----------------|---------------|
D|5---5---7-----7---|4---------------|---------------|
A|------------------|----5--7--------|5--------------|
E|------------------|---------7------|---------------|


Post-chorus/outro (3:23)

G|---------------|---------------|---------------|---------------|
D|---------------|0/5(r)---------|---------------|---------------|
A|5(r)-----------|---------------|0/5(r)---------|---------------|
E|---------------|---------------|---------------|5(r)-----------|

G|---------------|---------------|---------------|----------------|
D|---------------|0/5(r)---------|---------------|5---7-----------|
A|0/5(r)---------|---------------|0/5(r)---------|--------5-------|
E|---------------|---------------|---------------|------------5---|

Repeat until ending.
comments
We did not receive enough feedback on this tab! Please rate:
print report bad tab
1 2 3 4 5
I want to post or [tab]
guest
You may want to rate the tab now too:
select rating
Please do not post tabs as comments. Select "correction" instead!