Oops, an error
Loading. Please wait.

If I Should Fall From Grace With God Bass Tab

version 1
version 1

Whole song

Interactive

1,694 views 12 this week
no commentswrite comment
1 2 3 4 5
excellent!
x 2
add to favorites
launch autoscroll
font size
0
reset
guitar tuner
Tab Pro tools
  • play this tab
  • loop segment
  • change instrument
  • show fretboard
  • metronome
Autoscroll
slow
fast
+/-
esc
set tempo
stop
Difficulty
novice
-------------------------------------------------------------------------------
                  IF I SHOULD FALL FROM GRACE WITH GOD - The Pogues
-------------------------------------------------------------------------------

Tuning: standard

Intro
                        /                   .1/                    .2/
G|----------------------|--------------------*|---------------------||
D|--------7-------------|-------------7----9-*|--------7----9-------||
A|---7--5------7----4---|---7----7--5----7---*|---7--5----7-------7-||
E|-5---------5----2-----|-5----5-------------*|-5--------------5----||

Verse/chorus
G|------------------------------------------------------------------------------------|
D|-------------7---------------------7--4--5-6---------------------7-----------7----9-|
A|---7----7--5------7------7----7--5---------------7----7----4--5--------7--5----7----|
E|-5----5---------5------5----5------------------5----5----2-----------5--------------|

Post-chorus
G|--------------------------------*||
D|--------------------------------*||
A|-------5-5--------------7-7-----*||
E|-5-5-5------5-5---5-5-5-----5-5-*||

Solo                    x4
G|-----------------------*||-------------------------*||
D|--------4--------------*||--------7----9-----------*||
A|---7--5-------7----7---*||---7--5----7----7-5--4---*||
E|-5----------5----5---5-*||-5---------------------7-*||

Outro - same as intro except for last bar:
G|------------------------||
D|--------7----9----------||
A|---7--5----7------7-----||
E|-5--------------5---5~~-||
comments
We did not receive enough feedback on this tab! Please rate:
print report bad tab
1 2 3 4 5
I want to post or [tab]
guest
You may want to rate the tab now too:
select rating
Please do not post tabs as comments. Select "correction" instead!