Oops, an error
Loading. Please wait.

Streams Of Whiskey intro tab

version 1
version 1

Intro

  • This is the same melody as the tab shown in "versi... Show more

Interactive

by Pogues
70 views 3 this week
no commentswrite comment
1 2 3 4 5
3 more votes to show rating
add to favorites
×
Save as Personal and add changes to this tab that will be seen only by you. Learn more ›
×
You can save this tab as Personal to edit and correct it or add notes. All changes will be seen only by you. Learn more »
launch autoscroll
font size
0
reset
how to read this tab
guitar tuner
backing track
0:00
0:00
edit
Autoscroll
slow
fast
+/-
esc
set tempo
stop
Author
Difficulty
About this tab version
This is the same melody as the tab shown in "version 1 chords" except that it allows you to keep your hand in the same position making the fingering easier. Was this info helpful? Yes No
e|---------------------------------|---------10-9-7------------------|
B|--------------------7-7-7---7-10-|-----7-10-------10-8-7-------7---|
G|-7-9-7~-7-9-7~--7-9-------9------|-7-9-------------------9-7-9---9-|
D|---------------------------------|---------------------------------|
A|---------------------------------|---------------------------------|
E|---------------------------------|---------------------------------|

e|---------------------------------|---------10-9-7------------------|
B|--------------------7-7-7---7-10-|-----7-10-------10-8-7-----------|
G|-7-9-7~-7-9-7~--7-9-------9------|-7-9-------------------9-7-7-9-7-|
D|---------------------------------|---------------------------------|
A|---------------------------------|---------------------------------|
E|---------------------------------|---------------------------------|



            
            
Suggest correction
Creating personal tab
Creating personal tab
You can edit any tab online and save it as your Personal.

You can edit, replace or remove any tab part or add personal notes – all changes will be seen only by you.

Personal tabs can be accessed anytime from any device, even offline.
Learn more »
Give kudos to tab author, rate the tab!
1 2 3 4 5
comments
print report bad tab
guest
You may want to rate the tab now too:
select rating
Wanna post a correction for this tab? Suggest correction