Oops, an error
Loading. Please wait.

Das Leben Ist Tab

3,765 views 1 this week
3 commentsread comments
1 2 3 4 5
excellent!
x 3
add to favorites
launch autoscroll
font size
0
reset
how to read this tab
guitar tuner
Tab Pro tools
  • play this tab
  • loop segment
  • change instrument
  • show fretboard
  • metronome
×
Best way to learn
"Das Leben Ist"
Autoscroll
slow
fast
+/-
esc
set tempo
stop
Pohlmann - Das Leben ist

Cm7	F#m	G5
3	2	3
3	2	3
5	2	0
5	4	0
3	4	2
3	2	3


Intro:
E----------------------------------2-----3------------------------------|
H-------------------------------------------7 5-----------0-0h2---------|
G---------------------------------    ----------------------------------|
D--0---0-0h2----2s4-------4--- 5--------------2-------------------------|
A------------------------------4---3--------------0---------------------|
E--5-5---------5--------0--2--------------------------------------------|

	D		F#m        Cm7             A


E------------------------------|
H--3----3--3s5---5s7-----------|
G----2-------------------------|
D--0-------------0-------------|
A------------------------------|
E------------------------------|
	D

D		      F#m                Cm7                 A
Ich geh durch die Stadt und alles ist so wie es immer ist
D                           F#m		    Cm7     A
Ich seh wie man sich das Leben gewöhnlich frisst
                             Em            F#m
Und ich fang wieder an mich zu wundern
                         A
Wie seltsam ein einziges Wort von uns klingt
                              Em           F#m
Ja Und ich fang wieder an mich zu wundern
		A
Wie seltsam ein einziges Wort von uns klingt
		      D
Und dann stell ich mir vor
		   F#m
Ich käm’ nicht von hier
			A
Ich käm’ von ganz weit weg
	         Em
Wo es anders ist
		       D
Und dann stell ich mir vor
	        F#m
Ich wäre kein Mensch
		A                          Em
Und Ich schau uns an und denk mir dann
	       G5
Wie seltsam das Leben ist

Ich fühl mich wie ein Fremder in einer fremden Welt
Und nichts ist wie es war wenn dieser Schleier fällt
Und ich fang wieder an mich zu wundern
Wie seltsam ein einziges Wort von uns klingt

Und dann stell ich mir vor
Ich käm’ nicht von hier
Ich käm’ von ganz weit weg
Wo es anders ist
Und dann stell ich mir vor
Ich wäre kein Mensch
Und Ich schau uns an und denk mir dann
Wie seltsam das Leben ist

Das Leben ist ( 12x)

Bridge:
E--2----2----2----2----5----5----5----5----9------9------9------9-----------------|
H--3----3----3----3----7----7----7----7----10----10----10----10-------------------|
G----2----2----2----2----6----6----6----6-----11-----11-----11-----11-------------|
D---------------------------------------------------------------------------------|
A---------------------------------------------------------------------------------|
E---------------------------------------------------------------------------------|

Und dann stell ich mir vor
Ich käm’ nicht von hier
Ich käm’ von ganz weit weg
Wo es anders ist
Und dann stell ich mir vor
Ich wäre kein Mensch
Und Ich schau uns an und denk mir dann

Dann stell ich mir vor
Ich käm’ nicht von hier
Ich käm’ von ganz weit weg
Wo es anders ist
Und dann stell ich mir vor
Ich wäre kein Mensch
Und Ich schau uns an und denk mir dann
	       G5        A
Wie seltsam das Leben ist
comments
We did not receive enough feedback on this tab! Please rate:
print report bad tab
1 2 3 4 5
3 comments total.
+1 reply
Andre88 wrote on March 27 2008, 10:58 am

E----------------------------2-----3------------------------
H----------------------------------------7 5------0-0h2
G---------------------------------------------------------------
D--0---0-0h2----2s4-------4----- 5--------------2------------
A------------------------4------3--------------0-------------
E--5-5---------5----0---2-----------------------------------

0 reply
Andre88 wrote on March 27 2008, 10:58 am

E----------------------------2-----3------------------------
H----------------------------------------7 5------0-0h2
G---------------------------------------------------------------
D--0---0-0h2----2s4-------4----- 5--------------2------------
A------------------------4------3--------------0-------------
E--5-5---------5----0---2-----------------------------------

0 reply
puKed wrote on May 9 2009, 08:16 am

Guter Tab :)
Liebe Grüße!

I want to post or [tab]
guest
You may want to rate the tab now too:
select rating
Please do not post tabs as comments. Select "correction" instead!