Oops, an error
Loading. Please wait.

Every Rose Has Its Thorn Tab

version 4
version 4

Whole song

Video

31,759 views 36 this week
no commentswrite comment
1 2 3 4 5
excellent!
x 10
add to favorites
launch autoscroll
font size
0
reset
how to read this tab
guitar tuner
Tab Pro tools
  • play this tab
  • loop segment
  • change instrument
  • show fretboard
  • metronome
×
Best way to learn
"Every Rose Has Its Thorn"
Autoscroll
slow
fast
+/-
esc
set tempo
stop
Contributor
Tuning
D# G# C# F# A# D#
Every Rose Has Its Thorn - Poison
this song is half step down.
btw all the C is played as Cadd9.
ok anyway, here are the chords and solo + bass during 2nd solo.
enjoy.

key- b    = bend
     gb   = gradual bend
     ~    = vibrato
     ~~~  = vibrato + hold
     \    = slide towards neck
     br   = bend release
     pbr  = pre-bend release



Intro: 
repeat G C


G                                 C
We both lie silently still in the dead of the night
            G
Although we both lie close together
        C
We feel miles apart, inside
       G
Was it somethin' I said or somethin' I did
       C
Did my words not come out right
         D Dsus4 D                Dsus4 D
Tho'   I tri--ed   not to hurt you
         C
Tho' I tri-ed, but I guess that's why they say


Chorus:
G                  C
Every rose has its thorn
          G                   C
Just like every night has its dawn
          G     D                C                   
Just like every cowboy sings his sad, sad song
G                  C
Every rose has its thorn

Yea it does


[1st solo]
repeat G C


  G                                          C
I listen to our favorite song playin' on the radio
         G
Hear the DJ say love's a game of
              C
Easy come and   easy go
      G              C
But I wonder does he know
       G              C
Has he ever felt like this
      D         Dsus4 D                Dsus4 D
And I know that you'd    be here right now
     C
If I    could have let you know somehow I guess


[Chorus]


Em                         D
  Though it's been a while now
              C            G    F
I could still feel so much pain
Em                         D
  Like the knife that cuts you        
                C                             G
The wound heals,   but the scar, that scar re-mains.


Solo:  
repeat C G


After Solo:
repeat C G


G
 I know I could have saved our love that night 
C
If I'd know what to say
G
 Instead of making love
C
We both made our separate ways
     G                        C
Now I  hear you've found some-body new
    G                       C
And that I never meant that much to you
   D
To hear that tears me up inside
       C
And to see you cuts me like a knife, I guess
      

[Chorus]     


here is the solo and the notes on top are the bass played over them.


1st solo:                                                    
e|--------------------------------------------------------------------|
B|-------------------15b17r15~---------------------13-12--------------|
G|--14b-14b-14b-14b-------------------12-14p12----------14--14b-14\---| 
D|------------------------------12-14----------14---------------------| 
A|--------------------------------------------------------------------|
E|--------------------------------------------------------------------|

e|--15b17r15~---------------------------------------------------------|
B|--------------------------------------------------------------------|
G|-------------12b13r12~----------------------------------------------| 
D|--------------------------------------------------------------------| 
A|--------------------------------------------------------------------|
E|--------------------------------------------------------------------|


2nd solo:
    G           C                 hold bend   G      C
e|-------------------------------------------------------------------|
B|------------------------------------15-------------15pbr~----------|
G|--10gb--/16~--16-17-16-17-16-17-14b----14br-12~\-------------------| 
D|-------------------------------------------------------------------| 
A|-------------------------------------------------------------------|
E|-------------------------------------------------------------------|

                                       E
e|------------------------------------------------------------------|
B|--13-12-10-12-10----10--------------------------------------------|
G|-----------------12----12-11-12-11-7-9~---------------------------| 
D|------------------------------------------------------------------| 
A|------------------------------------------------------------------|
E|------------------------------------------------------------------|

    F#   E   G        F#       E       F#   E
e|---------------15-----15-----15-----------------------------------|
B|--7--8-5---15b----15b----15b---------7--8-5~----------------------|
G|------------------------------------------------------------------| 
D|------------------------------------------------------------------| 
A|------------------------------------------------------------------|
E|------------------------------------------------------------------|

   F#                                            G
e|-----17p15p12h15-19p15-17p15----19p15-17p15----15~----------------|
B|-/12-------------------------17-------------17--------------------|
G|------------------------------------------------------------------| 
D|------------------------------------------------------------------| 
A|------------------------------------------------------------------|
E|------------------------------------------------------------------|


Last solo:
And that I never meant that much to you
e|------------------------------------------------------------------|
B|--------------------15------------------13-12-----15--------------|
G|--14brp12h14~~~14b-----14b--14brp12~----------14b----14br-12~-----| 
D|------------------------------------------------------------------| 
A|------------------------------------------------------------------|
E|------------------------------------------------------------------|

Every rose has its thorn
e|--22br~-----------------------------------------------------------|
B|------------------------------------------------------------------|
G|--------14brp12~--------------------------------------------------| 
D|------------------------------------------------------------------| 
A|------------------------------------------------------------------|
E|------------------------------------------------------------------|

Just like every night has its dawn
e|------------------------------------------------------------------|
B|-----------------13-12-------15-----------------------------------|
G|--------12-14-12---------14b----14brp12~~~14~~~12~~~12~-----------| 
D|--12-14-----------------------------------------------------------| 
A|------------------------------------------------------------------|
E|------------------------------------------------------------------|

[End]

comments
print report bad tab
I want to post or [tab]
guest
You may want to rate the tab now too:
select rating
Please do not post tabs as comments. Select "correction" instead!