Oops, an error
Loading. Please wait.

I Want Action bass

version 1
version 1

Whole song

Interactive

by Poison
3,090 views 1 this week
1 commentread comment
1 2 3 4 5
x 4
add to favorites
×
Save as Personal and add changes to this tab that will be seen only by you. Learn more ›
×
You can save this tab as Personal to edit and correct it or add notes. All changes will be seen only by you. Learn more »
launch autoscroll
font size
0
reset
guitar tuner
edit
Autoscroll
slow
fast
+/-
esc
set tempo
stop
Author
Difficulty
Intro

Gb|------------------------------------------------------|
Db|------------------------------------------------------|
Ab|------------------2-2-2-2-2-2-2-2-2-2-2-2-2-0---------|
Eb|--3-------5-------------------------------------------|

Verse

Gb|--------------------| x4
Db|---------------2--2-|
Ab|-----------0-0------|
Eb|--7-----------------|

Bridge

Gb|-----------------------------| x3
Db|-----------------------------|
Ab|---------------0--0--0-0-0-0-|
Eb|-3--3--3-3-3-3---------------|

Gb|--------------------------|
Db|--------------------------|
Ab|---------------0-0----0-0-|
Eb|-3--3--3-3-3-3------------|

Chorus

Gb|---------------------------------------------------------------|
Db|-------------2-2-------------2-2-------------------------------|
Ab|-2-2-2-2-0-0-----2-2-2-2-0-0-------------0-0-0-0-2-2-2-2-2-0---|
Eb|---------------------------------3-3-3-3-----------------------|

Verse

Gb|--------------------| x4
Db|---------------2--2-|
Ab|-----------0-0------|
Eb|--7---------------|

Bridge

Gb|-----------------------------| x3
Db|-----------------------------|
Ab|---------------0--0--0-0-0-0-|
Eb|-3--3--3-3-3-3---------------|

Gb|--------------------------|
Db|--------------------------|
Ab|---------------0-0----0-0-|
Eb|-3--3--3-3-3-3------------|

Chorus

Gb|---------------------------------|
Db|-------------2-2-------------2-2-|
Ab|-2-2-2-2-0-0-----2-2-2-2-0-0-----|
Eb|---------------------------------|

Gb|-------------------------------------------|
Db|-------------------------------------------|
Ab|---------0-0-0-0-2-2-2-2-2-0-0-0-0-0-0-0-0-|
Eb|-3-3-3-3-----------------------------------|

Solo

Gb|---------------------------------|
Db|-------------2-2-------------2-2-|
Ab|-2-2-2-2-0-0-----2-2-2-2-0-0-----|
Eb|---------------------------------|

Gb|-------------------------------------------| All x2
Db|-------------------------------------------|
Ab|---------0-0-0-0-2-2-2-2-2-0-0-0-0-0-0-0-0-|
Eb|-3-3-3-3-----------------------------------|

Bass Break

Gb|-----------------------| x6
Db|----------------2--0-2-|
Ab|-2--2-2-2-2-0-0--------|
Eb|-----------------------|

Gb|------------------------------------------------------|
Db|------------------------------------------------------|
Ab|------------------2-2-2-2-2-2-2-2-2-2-2-2-2-0---------|
Eb|--3-------5-------------------------------------------|

Chorus

Gb|---------------------------------|
Db|-------------2-2-------------2-2-|
Ab|-2-2-2-2-0-0-----2-2-2-2-0-0-----|
Eb|---------------------------------|

Gb|-------------------------------------------| 
Db|-------------------------------------------|
Ab|---------0-0-0-0-2-2-2-2-2-0-0-0-0-0-0-0-0-|
Eb|-3-3-3-3-----------------------------------|

Gb|---------------------------------|
Db|-------------2-2-------------2-2-|
Ab|-2-2-2-2-0-0-----2-2-2-2-0-0-----|
Eb|---------------------------------|

Gb|----------------------------------------------------------------|
Db|----------------------------------------------------------------|
Ab|---------0-0-0-0-2-2-2-2-2-0-0-0-0---------0-0-0-0-02--02-2-0-2-|
Eb|-3-3-3-3---------------------------3-3-3-3----------------------|

End on Ab|-2-|

            
            
Suggest correction
Creating personal tab
Creating personal tab
You can edit any tab online and save it as your Personal.

You can edit, replace or remove any tab part or add personal notes – all changes will be seen only by you.

Personal tabs can be accessed anytime from any device, even offline.
Learn more »
comments
print report bad tab
1 comment total.
+2 reply
xxxxChrisTxxxx [tm] 10,225 Mar 27, 2013 12:18 PM

The 2nd section of the solo should be something like this.....

Gb|---------------------------------------------------|
Db|---------------------------------------------------|
Ab|------2-4-4-5-5-----7-5-5-4-4-2-2-2-2-2-2-2-2-2-0--|
Eb|--3-3-----------5-5--------------------------------| 1st time

Gb|-----------------------------------------------------------------|
Db|-----------------------------------------------------------------|
Ab|------2-4-4-5-5-----7-5-5-4-4-----2-4-4-5-5-0-0-0-0-0-0-0-0-0-2--|
Eb|--3-3-----------5-5-----------3-3--------------------------------| 2nd time


and a variation of it is also used in the bridge.

guest
You may want to rate the tab now too:
select rating
Wanna post a correction for this tab? Suggest correction