Oops, an error
Loading. Please wait.

I Wont Forget You Tab

version 1
version 1

Whole song

Interactive

49,060 views 45 this week
no commentswrite comment
1 2 3 4 5
x 7
add to favorites
launch autoscroll
font size
0
reset
how to read this tab
guitar tuner
Autoscroll
slow
fast
+/-
esc
set tempo
stop
Help us to improve Ultimate-Guitar.com Take our survey!
×
I Won't Forget You
POISON


        This is a pretty good POISON song, to sing to your girlfriend...
well, I transcribed the chords only, C.C. plays these chords with
arpeggios, just improvising, I don't gonna break my head trying to hear
what is he really does, so play this chords and have fun!!!
        There are a chord which I'm not very certain if he does it or not,
but anyway you can play with or without that chord, since I think that
isn't very important. The chord are marked with (). 
        Well as you know I can't post the tab  with the lyrics, so if you
want the tab with lyrics, just emailme;)

Tune at D#

    G     C     Em    D    Am    (Bm)
-|--3--|--3--|--7--|--5--|--5--|--2--|
-|--3--|--5--|--8--|--7--|--5--|--3--|
-|--4--|--5--|--9--|--7--|--5--|--4--|
-|--5--|--5--|--9--|--7--|--7--|--4--|
-|--5--|--3--|--7--|--5--|--7--|--2--|
-|--3--|-----|-----|-----|--5--|-----|

Play Intro with this chord proggression:
G-C-Em-D x 2 (ends with G)

[Intro]
          1+-      1+-        ~~~~~~~~~  1+      1+   
       ½+
-|-------------------------------------|-----10------10------------------|
-|---8-10-10---8---10^8---10--8--------|-10------10----------------------|
-|-9--------------------9--------------|-----------------9^7-------------|
-|-------------------------------------|----------------------9----\-----|
-|-------------------------------------|---------------------------------|
-|-------------------------------------|---------------------------------|

   1+      1+      +1-  ~~~~~~~~~       
~~~~~~~~~~~~~~
-|-----10------10-------------------|---------------------|
-|-10------10------10---10----------|---------------------|
-|----------------------------------|----7----------------|
-|----------------------------------|---------------------|
-|----------------------------------|---------------------|
-|----------------------------------|---------------------|

Em             D
C                                    (Bm)
Em      D
C                                    (Bm)


Am                            (Bm)
C                             D

[Chorus]
G                    C
Em           D
G                    C
Em           D               GEm       D
      C                       (Bm)
Em         D

                C                                     
(Bm)    ½+-                              w/bar
-|--------------------|----------------------------|
-|-S.H.---------------|-10---12-13---15\-----------|
-|--------------------|-----------------\----------|
-|-9--------------7\--|------------------\---------|
-|--------------------|-------------------\--------|
-|--------------------|--------------------\-------|

Am                 (Bm)
C                  Dm


[Chorus]

Am

C                       DPlay solo with this chord proggression:
G-C-Em-D x 2

  [Solo:]  ......1+-    /\/\/\/\             .......1+-
 1+
-|--------15-----------19-------------------15---------------------------|
-|-----------------------------------------------------------------------|
-|------------------------------------------------------14---14^12---14\-|
-|-----------------------------------------------------------------------|
-|-----------------------------------------------------------------------|
-|-----------------------------------------------------------------------|

   ......1-+     -1\/ -½\/
-|-15--------------------------------------------------------------|
-|------------15---------------------------------------------------|
-|-----------------------------------------------------------------|
-|-----------------14----------------------------------------------|
-|---------------------15---15-14-15--12--14-15--12----------------|
-|---------------------------------------------------15-15-14-14\--|

Am                            (Bm)
C                D
G                C
Em               D
G                C
Em               D
G                        


 [Outro Solo:]    ......1+-    /\/\/\/\         ....1+- 
1+
-|--------------15-----------19---------------15-------------------------|
-|-----------------------------------------------------------------------|
-|-----------------------------------------------------14---14^12---14\--|
-|-----------------------------------------------------------------------|
-|-----------------------------------------------------------------------|
-|-----------------------------------------------------------------------|

          1+      1+     +1- ½+     1+      1+     +1-
 ~~~~~    ~~~~~~~~
-|-----------------------------------------------------------------------|
-|----12------15------15----------------15------15-----------------------|
-|-14-----14------14-----14---------14------14-----14---14-------7-------|
-|-----------------------------------------------------------------------|
-|---------------------------14------------------------------------------|
-|-----------------------------------------------------------------------|


****************************************************

TABLATURE EXPLANATION:

         ......1+-                    /\/\/\/\/\
|--------15-----------|      |--------15-----------|
 Play the tone wait a time    Vibrato with bar
 and then make the bend
 & release

         +1-                          ~~~~~~~~~~~~
|--------15-----------|      |--------15-----------|
 Pre-bend & release           Vibrato with finger

        -1\/ -½\/
|--------15-----------|
|-------------14------|
 With bar, get down the
 whole or half tone and
 then return to the
 indicated note on the
 fretboard

\ or / = slide
^      = pull-off, hammer-on
S.H.   = semi harmonics

****************************************************
Suggest correction
comments
print report bad tab
guest
You may want to rate the tab now too:
select rating
Wanna post a correction for this tab? Suggest correction