Oops, an error
Loading. Please wait.

Look What The Cat Dragged In bass

version 2
version 2

Whole song

Interactive

by Poison
1,070 views 3 this week
1 commentread comment
1 2 3 4 5
x 4
add to favorites
×
Save as Personal and add changes to this tab that will be seen only by you. Learn more ›
×
You can save this tab as Personal to edit and correct it or add notes. All changes will be seen only by you. Learn more »
launch autoscroll
font size
0
reset
guitar tuner
edit
Autoscroll
slow
fast
+/-
esc
set tempo
stop
----------------------------------------------------------------------------------
                                          Look What The Cat Dragged In - Poison
----------------------------------------------------------------------------------

Tabbed by: ChrisT

From the album: Look What The Cat Dragged In (1986)

Tuning: Eb,Ab,Db,Gb

Intro                                   Repeat x4
Gb|------------|----------|----------------------|
Db|------------|----------|o--------------------o|
Ab|------------|----------|o--------------------o|
Eb|------------|---12\0---|---0-0-0-0-0-0-0-0----|
                Picking & slide

Verse 1
Gb|--------------|----------------------|--------------|----------------------|
Db|--------------|o--------------------o|--------------|o--------------------o|
Ab|--------------|o--------------------o|--------------|o--------------------o|
Eb|--12\---------|---0-0-0-0-0-0-0-0----|--12\---------|---0-0-0-0-0-0-0-0----|

Pre-Chorus
Gb|----------------------------------------------------------------------|
Db|------5-5-2-2-5-5---5---2-------5-5-----7-7-4-4-7-7---7---4-----------|
Ab|--3-3-----------------------3-3-----5-5-------------------------------|
Eb|--------------------------------------------------------------3---2---|

Chorus
Gb|----------------------|------------------------------------|
Db|o--------------------o|------------------------------------|
Ab|o--------------------o|--3-3-3-3-3-3-3-3-5-5-5-5-----------|
Eb|---0-0-0-0-0-0-0-0----|--------------------------3---2-----|

Gb|----------------------|----------------------------------------------------|
Db|o--------------------o|----------------------------------------------------|
Ab|o--------------------o|--3-3-3-3-3-3-3-3-5-----------------------------7---|
Eb|---0-0-0-0-0-0-0-0----|----------------------3---2---0---------------------|

Verse 2
Gb|--------------|----------------------|--------------|----------------------|
Db|--------------|o--------------------o|--------------|o--------------------o|
Ab|--------------|o--------------------o|--------------|o--------------------o|
Eb|--12\---------|---0-0-0-0-0-0-0-0----|--12\---------|---0-0-0-0-0-0-0-0----|

Pre-Chorus
Gb|----------------------------------------------------------------------|
Db|------5-5-2-2-5-5---5---2-------5-5-----7-7-4-4-7-7---7---4-----------|
Ab|--3-3-----------------------3-3-----5-5-------------------------------|
Eb|--------------------------------------------------------------3---2---|

Chorus
Gb|----------------------|------------------------------------|
Db|o--------------------o|------------------------------------|
Ab|o--------------------o|--3-3-3-3-3-3-3-3-5-5-5-5-----------|
Eb|---0-0-0-0-0-0-0-0----|--------------------------3---2-----|

Gb|----------------------|----------------------------------------------------|
Db|o--------------------o|----------------------------------------------------|
Ab|o--------------------o|--3-3-3-3-3-3-3-3-5-----------------------------7---|
Eb|---0-0-0-0-0-0-0-0----|----------------------3---2---0---------------0-----|

Guitar Solo
Gb|--------------------|----------------------|--------------------|
Db|--------------------|o--------------------o|--------------------|
Ab|--7-7-7-7-7-7-7-7---|o--------------------o|--------------------|
Eb|--------------------|---5-5-5-5-5-5-5-5----|--0-----------12\---|

Gb|----------------------|--------------------|----------------------|
Db|o--------------------o|--------------------|o--------------------o|
Ab|o--------------------o|--------------------|o--3-3-3-3-3-3-3-3---o|
Eb|---5-5-5-5-5-5-5-5----|--0-----------------|----------------------|

Gb|----------------------|-------------------|
Db|o--------------------o|-------------------|
Ab|o--5-5-5-5-5-5-5-5---o|-5-5-5-5\----------|
Eb|----------------------|----------3---2----|

Verse 3         Repeat x4
Gb|----------------------|------------|
Db|o--------------------o|------------|
Ab|o--------------------o|------------|
Eb|---0-0-0-0-0-0-0-0----|--3---2-----|

Chorus
Gb|------------------------------------------------------------------------|
Db|o----------------------------------------------------------------------o|
Ab|o----------------------------------3---3-3-3-3-3-3-5---5-5-5-----------o|
Eb|---0-0-0-0-0-0-0-0-0-0-0-0-0-0-0-0-----------------------------3---2----|

                                  Repeat x3
Gb|----------------------------------------|-----------------------------------|
Db|o--------------------------------------o|-----------------------------------|
Ab|o-------------------5---5-5-5----------o|-----------------------------------|
Eb|--0-0-0-0-0-0-0-0---------------3---2---|--0-0-0-0-0-0-0-0-0-0-0-0---3---2--|

Outro                          Repeat until end
Gb|--------------------------------------------|
Db|o------------------------------------------o|
Ab|o--------------------5---5-5-5-------------o|
Eb|---0-0-0-0-0-0-0-0---------------3---2------|



| /  slide up
| \  slide down
| h  hammer-on
| p  pull-off
| ~  vibrato
| +  harmonic
| x  Mute note
===============================================================================
Suggest correction
Creating personal tab
Creating personal tab
You can edit any tab online and save it as your Personal.

You can edit, replace or remove any tab part or add personal notes – all changes will be seen only by you.

Personal tabs can be accessed anytime from any device, even offline.
Learn more »
comments
print report bad tab
1 comment total.
0 reply
gooch737 10 Apr 22, 2013 10:06 AM

Dude nice job but I play the pre-chorus like this: Use your groove with the rhythm!

----------------------------------------------------|
-------22--55---22-----2-------44---77--44----------|
---33---------------3-----55------------------------|
---------------------------------------------3--2---|

guest
You may want to rate the tab now too:
select rating
Wanna post a correction for this tab? Suggest correction