Oops, an error
Loading. Please wait.

Nothin But A Good Time tab

version 1
version 1

Whole song

Interactive

by Poison
59,924 views 63 this week
7 commentsread comments
1 2 3 4 5
x 13
add to favorites
×
Save as Personal and add changes to this tab that will be seen only by you. Learn more ›
×
You can save this tab as Personal to edit and correct it or add notes. All changes will be seen only by you. Learn more »
launch autoscroll
font size
0
reset
how to read this tab
guitar tuner
edit
Autoscroll
slow
fast
+/-
esc
set tempo
stop
Author
Difficulty
Poison Nothin But A Good Time.



Intro
                                                               
|----------------------------------------------------------3---2--|
|-14----14----15--14--15--14--0--14------------15--14---0--3---3--|
|-14----14----14--14--14--14--0--14--------14--14--14---0--0---2--|
|-14----14----16--14--16--14--0--14--14-14-14--16--14---0--0---0--|
|------------------------------------15-16-----------------x------|
|----------------------------------------------------------3------|


Lead

|------------------------------------------------------------------|
|----------14----14--------14----14~~------14-----x--------0-------|
|----------14-16-14--------14--x-14~~------14-16-14--/x(0)-0-------|
|----------14-14-14--16/17-14--x-----15-16-14-16-14--/x(0)---------|
|-x-x--------------------------------------------------------------|
|-x-x-22/----------------------------------------------------------|

                                     A chord
|--14-14-14-14--------------------------------------|
|--15-15-15-15-----5~r3------4b---------------------|
|-----------14-14/--------------2~~~~--2-(2)fade~~--|
|---------------------------------------------------|
|---------------------------------------------------|
|---------------------------------------------------|



Verse X2

|----------------------|------------------------------------|
|--14----14/-----------|----14--15----15--14-----12---7-----|
|--14----14/-----------|----14--14----14--14-----12---7-----|
|--14----14/-----------|----14--16----16--14-----12---7-----|
|----------------------|------------------------------------|
|----------------------|------------------------------------|
|                                                           |
|----------------------|--------------------------3---2-----|
|--14----14/-----------|----14--15----15--14------3---3-----|
|--14----14/-----------|----14--14----14--14------0---2-----|
|--14----14/-----------|----14--16----16--14------0---0-----|
|----------------------|--------------------------x---------|
|----------------------|--------------------------3---------|

  X2

|-----------------------------------------------------------------|
|-14----14----15--14--15--14--0--14------------15--14--0--12---7--|
|-14----14----14--14--14--14--0--14--------14--14--14--0--12---7--|
|-14----14----16--14--16--14--0--14--14-14-14--16--14--0--12---7--|
|------------------------------------15-16------------------------|
|-----------------------------------------------------------------|
|                                                                 |
|----------------------------------------------------------3---2--|
|-14----14----15--14--15--14--0--14------------15--14---0--3---3--|
|-14----14----14--14--14--14--0--14--------14--14--14---0--0---2--|
|-14----14----16--14--16--14--0--14--14-14-14--16--14---0--0---0--|
|------------------------------------15-16-----------------x------|
|----------------------------------------------------------3------|








Chorus X2
|-------------------------------------------|
|-14---14----15--14--15--14--0--12---7--2---|
|-14---14----14--14--14--14--0--12---7--2---|
|-14---14----16--14--16--14--0--12---7--2---|
|-------------------------------------------|
|-------------------------------------------|
|                                           |
|--------------------------------3---2------|
|-14---14----15--14--15--14--0---3---3--2---|
|-14---14----14--14--14--14--0---0---2--2---|
|-14---14----16--14--16--14--0---0---0--2---|
|--------------------------------x------0---|
|--------------------------------3----------|


Verse X2

|----------------------|-----------------------------------|
|--14----14/-----------|----14--15----15--14-----12---7----|
|--14----14/-----------|----14--14----14--14-----12---7----|
|--14----14/-----------|----14--16----16--14-----12---7----|
|----------------------|-----------------------------------|
|----------------------|-----------------------------------|
|                                                          |
|----------------------|-------------------------3---2-----|
|--14----14/-----------|----14--15----15--14-----3---3-----|
|--14----14/-----------|----14--14----14--14-----0---2-----|
|--14----14/-----------|----14--16----16--14-----0---0-----|
|----------------------|-------------------------x---------|
|----------------------|-------------------------3---------|

X2

|-----------------------------------------------------------------|
|-14----14----15--14--15--14--0--14------------15--14--0--12--7---|
|-14----14----14--14--14--14--0--14--------14--14--14--0--12--7---|
|-14----14----16--14--16--14--0--14--14-14-14--16--14--0--12--7---|
|------------------------------------15-16------------------------|
|-----------------------------------------------------------------|
|                                                                 |
|----------------------------------------------------------3---2--|
|-14----14----15--14--15--14--0--14------------15--14---0--3---3--|
|-14----14----14--14--14--14--0--14--------14--14--14---0--0---2--|
|-14----14----16--14--16--14--0--14--14-14-14--16--14---0--0---0--|
|------------------------------------15-16-----------------x------|
|----------------------------------------------------------3------|

Chorus X2
|-------------------------------------------|    |------------------|
|-14---14----15--14--15--14--0--12---7--2---|    |---5~r-3---4b-----| 
|-14---14----14--14--14--14--0--12---7--2---|    |--------------2~--|
|-14---14----16--14--16--14--0--12---7--2---|    |------------------|
|-------------------------------------------|    |------------------|
|-------------------------------------------|    |------------------|
|                                           |
|--------------------------------3---2------|
|-14---14----15--14--15--14--0---3---3--2---|
|-14---14----14--14--14--14--0---0---2--2---|
|-14---14----16--14--16--14--0---0---0--2---|
|--------------------------------x------0---|
|--------------------------------3----------|








Bridge To Solo

|-----------------------|--------------------------|
|--14----12-----7----2--|----14----12-----7----2---|
|--14----12-----7----2--|----14----12-----7----2---|
|--14----12-----7----2--|----14----12-----7----2---|
|-----------------------|--------------------------|
|-----------------------|--------------------------|
|                                                  |        
|---------3-----2-------|-----------3-----2----2---|
|---2-----3-----3----2--|-----2-----3-----3----2---|
|---2-----0-----2----2--|-----2-----0-----2----2---|
|---2-----0-----0----2--|-----2-----0-----0----0---|
|---0-----x----------0--|-----0-----x--------------|
|---------3-------------|-----------3--------------|


Solo
(Do Chorus Riff 4 times)

|--22b-------22b---22b---22b---|--22r---------------------17-|
|------------------------------|----------22~-------19/20----|
|------------------------------|-----------------------------|
|------------------------------|-----------------------------|
|------------------------------|-----------------------------|
|------------------------------|-----------------------------|

|--19-17-------17----------------------------------|--------------------|
|--------20-19----20-19p17-20-19-17----17----------|--------------------|
|-----------------------------------19----18-18p16-|--18~---------------|
|--------------------------------------------------|--------------------|
|--------------------------------------------------|--------------------|
|--------------------------------------------------|--------------------|

|------------------------|-----------------------|
|------------------------|--17b------------------|
|--17----17b-14----------|----------17--------0--|
|------------------------|-----------------------|
|------------------------|-----------------------|
|------------------------|-----------------------|

|------------------------------------------|----------------------|
|------------------------------------------|----------------------|
|-----------17~-----------17~-----------17/|--18~-----------x--0--|
|--19p17---------19p17---------19p17-------|----------------x-----|
|--------19------------19------------19----|----------------x-----|
|------------------------------------------|----------------------|

|-------------------------------------------|
|-------------------------------------------|
|-----------------5h7h9-------------6h7h9/--|
|-----------4h5h7-------------5h7h9---------|
|-----4h5h7-------------5h7h9---------------|
|--5----------------------------------------|

|--------17----------------17----------------|
|-----------------17----------------17-------|
|--17h18----17h18----17h18----17h18----------|
|--------------------------------------19~---|
|--------------------------------------------|
|--------------------------------------------|

|--------------------------------------|------------------------|
|--15p14-------17-15-14----17b---17b---|--17~-------------------|
|--------16-14----------16-------------|------------14/------0--|
|--------------------------------------|------------14/---x--0--|
|--------------------------------------|------------------x-----|
|--------------------------------------|------------------------|



|------17-----------17-----------17------------------------|
|---------20p17--------20p17--------20p17------17h20p17----|
|--19b----------19b----------19b----------19------------19b|
|----------------------------------------------------------|
|----------------------------------------------------------|
|----------------------------------------------------------|

|-----------------------------------------------------|
|--20p17----20p17----20p17----20p17----17-20p17----17-|
|--------19b------19b------19b------19b---------19b---|
|-----------------------------------------------------|
|-----------------------------------------------------|
|-----------------------------------------------------|

|--20-19-17-19-17-----------------------------------------------------|
|-----------------20-19p17-17h19p17-17----------------------------20~-|
|--------------------------------------19-17-17h19p17-17-16-----------|
|---------------------------------------------------------------------|
|-----------------------------------------------------------19/20-----|
|---------------------------------------------------------------------|

MMMMMM GUITAR!!!!!!!

 X2                                                              
|----------------------------------------------------------3---2--|
|-14----14----15--14--15--14--0--14------------15--14---0--3---3--|
|-14----14----14--14--14--14--0--14--------14--14--14---0--0---2--|
|-14----14----16--14--16--14--0--14--14-14-14--16--14---0--0---0--|
|------------------------------------15-16-----------------x------|
|----------------------------------------------------------3------|



Chorus Twice

Outro Solo

|----------------------|
|----------------------|
|----------2~----------|
|--------x-------------|
|------x---------------|
|----------------------|

|---------------------|------------------|--------------------------------|
|----------------x----|------------------|--------------------------------|
|------14~-------x----|------------------|----------14--16--16r---14--16b-|
|---------------------|------------------|----14/16-----------------------|
|---------------------|------------------|--------------------------------|
|---------------------|------------------|--------------------------------|

|-------------------------|----------------------------|-------------------|
|-------------------------|------17b---17--14----------|----------------8~-|
|----16r---16b---16r---x--|--------------------16b-14~-|-------------------|
|-------------------------|----------------------------|-------------------|
|-------------------------|----------------------------|-------------------|
|-------------------------|----------------------------|-------------------|

|-----------------------------------|------------------------------|
|------8r---8-7-5-------------------|------------------------------|
|-----------------7r--5---7p6p5h6p5-|------------------------------|
|-----------------------7-----------|--7--------------7---5~-------|
|-----------------------------------|-----7-6-5-4---4--------------|
|-----------------------------------|-------------5-----5----------|

|--------------------|
|--------------------|
|--------------------|
|--0/5/--------------|
|--------------------|
|--------------------|




I take no credit for solos. But everything else i do. I full correct tab yet. Thanks, jimmy


Suggest correction
Creating personal tab
Creating personal tab
You can edit any tab online and save it as your Personal.

You can edit, replace or remove any tab part or add personal notes – all changes will be seen only by you.

Personal tabs can be accessed anytime from any device, even offline.
Learn more »
comments
print report bad tab
7 comments total. Showing first comments.
0 reply
AcdcTXfan 288 Apr 30, 2007 01:51 PM

good, just remember the drop tuning

0 reply
ckyskater419 10 May 28, 2007 07:11 PM

whats the downtuning?

+1 reply
ckyskater419 10 Jul 08, 2007 03:01 PM

its tuned down a half step on all strings
Eb Ab Db Gb Bb Eb

guest
You may want to rate the tab now too:
select rating
Wanna post a correction for this tab? Suggest correction