Oops, an error
Loading. Please wait.

Nothin But A Good Time Tab

version 3
version 3

Whole song

Interactive

2,386 views 1 this week
no commentswrite comment
1 2 3 4 5
please rate
add to favorites
launch autoscroll
font size
0
reset
how to read this tab
guitar tuner
Tab Pro tools
  • play this tab
  • loop segment
  • change instrument
  • show fretboard
  • metronome
×
Best way to learn
"Nothin But A Good Time"
Autoscroll
slow
fast
+/-
esc
set tempo
stop
Contributor
Difficulty
novice
|-----------------------------------------|
|-----------------------------------------|
|--8------------------------------6-------|
|--6----8-6-8-6-8-6-------6-8-6---4----6--|
|---------------------7-8-------8------4--|
|-----------------------------------------| x4

|-----|
|-----|
|-----|
|-----|
|--6--|
|--4--|

 Now Listen
|-------------------------------|
|-------------------------------|
|--8\---------------------------|
|--6\----------------8-6---8-6--|
|-------------------------------|
|-------------------------------|
 Not a dime, I can't pay my rent 
|-------------------------------------|
|-------------------------------------|
|---6---------------------------------|
|---4----------------------------6-6--|
|--------------------------------4-4--|
|-------------------------------------| x2
 I can barely make it through the week 
 Saturday night I'd like to make my girl 
 But right now I can't make ends meet 

|----------------------------------|
|----------------------------------|
|--8----x-x-8--x-8-----------------|
|--6----x-x-6--x-6--------6-8-6----|
|---------------------7-8-------8--|
|----------------------------------|
 I'm always workin' slavin every day 
|------------------------------------------|
|------------------------------------------|
|--6---------------------------------------|
|--4------------------------6---------6-6--|
|---------------------------4---------4-4--|
|------------------------------------------| x2
 Gotta get away from that same old same old 
 I need a chance just to get away 
 If you could hear me think this is what I'd say 

|-----------------------------------|
|-----------------------------------|
|-----------------------------------|
|-----------------------------------|
|-----------6--6x6-6x----4--4x4-4x--|
|-----------4--4x4-4x----2--2x2-2x--|
 Don't need nothin but a good time 

|--------------------------|
|--------------------------|
|--------------------------|
|--6--6x6-6x---------------|
|--4--4x4-4x----6--6x6-6x--|
|---------------4--4x4-4x--|
      How can I resist 

|------------------------------------------|
|------------------------------------------|
|------------------------------------------|
|------------------------------------------|
|------------------6--6x6-6x----4--4x4-4x--|
|------------------4--4x4-4x----2--2x2-2x--|
 Ain't lookin' for nothin' but a good time 

|--------------------------------|
|--------------------------------|
|--------------------------------|
|-------6--6x6-6x----------------|
|-------4--4x4-4x-------------6--|
|-----------------------------4--|
 And it don't get better than this 

------------------------------------------------
VERSE 2 - SAME AS THE FIRST

They say I spend my money on women and wine 
But I couldn't tell you where I spent last night 
I'm really sorry about the shape I'm in 
I just like my fun every now and then 

I'm always workin' slavin' every day 
Gotta get away from that same old same old 
I need a chance just to get away 
If you could hear me think this is what I'd say 

------------------------------------------------
CHORUS 2 - SAME AS THE FIRST

------------------------------------------------ 
BRIDGE

|-----------------------------------|
|-----------------------------------|
|-------8------------------6--------|
|-------6------------------4--------|
|-----------------------------------|
|-----------------------------------|
You see I raise a toast to all of us 

|-----------------------------------|
|-----------------------------------|
|--------------------------8--------|
|------6-------------------6--------|
|------4----------------------------|
|-----------------------------------|
Who are breakin' our backs every day 

|--------------------------------------|
|--------------------------------------|
|----8----------------------6----------|
|----6----------------------4----------|
|--------------------------------------|
|--------------------------------------|
If wantin' the good life is such a crime
 
|------------------------------|
|------------------------------|
|------------------------------|
|------6-----------------------|
|------4--------------------6--|
|---------------------------4--|
         Lord, then put me away 
Here's to ya 

------------------------------------------------
SOLO
CAN BE PLAYED LIKE A VERSE, CHORUS OR BRIDGE.
IT ALL WORKS.

------------------------------------------------
CLIMB - SAME A VERSE. MORE DISTORTION

------------------------------------------------
FINAL CHORUS - YOU GUESSED IT!!

------------------------------------------------
comments
We did not receive enough feedback on this tab! Please rate:
print report bad tab
1 2 3 4 5
I want to post or [tab]
guest
You may want to rate the tab now too:
select rating
Please do not post tabs as comments. Select "correction" instead!